999
DXF file: plexi_v9_laser_36ks.dxf
999
Pro/ENGINEER 2011410 by Parametric Technology Corporation
  0
SECTION
  2
HEADER
  9
$ACADVER
  1
AC1021
  9
$DWGCODEPAGE
  3
ANSI_1250
  9
$EXTMAX
 10
558.8
 20
431.8
 30
0.0
  9
$EXTMIN
 10
0.0
 20
0.0
 30
0.0
  9
$LIMMIN
 10
0.0
 20
0.0
  9
$LIMMAX
 10
558.8
 20
431.8
  9
$VIEWCTR
 10
279.4
 20
215.9
  9
$VIEWSIZE
 40
431.8
  9
$CLAYER
  8
0
  9
$LTSCALE
 40
30.734
  9
$CELTYPE
  6
BYLAYER
  9
$DIMSCALE
 40
1.0
  9
$DIMASZ
 40
5.0
  9
$DIMEXO
 40
3.4925
  9
$DIMDLI
 40
21.2344
  9
$DIMEXE
 40
10.0584
  9
$DIMCEN
 40
5.0292
  9
$DIMLFAC
 40
1.0
  9
$DIMBLK
  1
_FILLED
  9
$DIMTXT
 40
3.2
  9
$DIMTOL
 70
1
  9
$DIMLIM
 70
0
  9
$DIMTFAC
 40
1.0
  9
$DIMTP
 40
0.1
  9
$DIMTM
 40
0.1
  9
$PDMODE
 70
3
  9
$PDSIZE
 40
0.3125
  9
$HANDSEED
  5
3EF
  9
$TILEMODE
 70
1
  9
$MEASUREMENT
 70
1
  9
$INSUNITS
 70
4
  0
ENDSEC
  0
SECTION
  2
CLASSES
  0
CLASS
  1
ACDBDICTIONARYWDFLT
  2
AcDbDictionaryWithDefault
  3
AutoCAD 2000
 90
0
 91
1
280
0
281
0
  0
CLASS
  1
ACDBPLACEHOLDER
  2
AcDbPlaceHolder
  3
AutoCAD 2000
 90
0
 91
1
280
0
281
0
  0
CLASS
  1
LAYOUT
  2
AcDbLayout
  3
AutoCAD 2000
 90
0
 91
0
280
0
281
0
  0
ENDSEC
  0
SECTION
  2
TABLES
  0
TABLE
  2
VPORT
  5
8
100
AcDbSymbolTable
 70
2
  0
VPORT
  5
1F4
100
AcDbSymbolTableRecord
100
AcDbViewportTableRecord
  2
*ACTIVE
 70
0
 10
0.0
 20
0.0
 11
1.0
 21
1.0
 12
279.4
 22
215.9
 13
0.0
 23
0.0
 14
1.0
 24
1.0
 15
0.0
 25
0.0
 16
0.0
 26
0.0
 36
1.0
 17
0.0
 27
0.0
 37
0.0
 40
431.8
 41
1.2941176471
 42
50.0
 43
0.0
 44
0.0
 50
0.0
 51
0.0
 71
0
 72
100
 73
1
 74
1
 75
0
 76
0
 77
0
 78
0
  0
ENDTAB
  0
TABLE
  2
LTYPE
  5
5
100
AcDbSymbolTable
 70
6
  0
LTYPE
  5
14
100
AcDbSymbolTableRecord
100
AcDbLinetypeTableRecord
  2
BYBLOCK
 70
0
  3

 72
65
 73
0
 40
0.0
  0
LTYPE
  5
15
100
AcDbSymbolTableRecord
100
AcDbLinetypeTableRecord
  2
BYLAYER
 70
0
  3

 72
65
 73
0
 40
0.0
  0
LTYPE
  5
16
100
AcDbSymbolTableRecord
100
AcDbLinetypeTableRecord
  2
CONTINUOUS
 70
64
  3
Solid line
 72
65
 73
0
 40
0.0
  0
LTYPE
  5
1F5
100
AcDbSymbolTableRecord
100
AcDbLinetypeTableRecord
  2
CENTER
 70
64
  3
____ _ ____ _ ____ _ ____ _ ____ _ ____ _ ____
 72
65
 73
4
 40
0.6
 49
0.375
 74
0
 49
-0.075
 74
0
 49
0.075
 74
0
 49
-0.075
 74
0
  0
LTYPE
  5
1F6
100
AcDbSymbolTableRecord
100
AcDbLinetypeTableRecord
  2
HIDDEN
 70
64
  3
- - - - - - - - - - - - - - - - - - - -
 72
65
 73
2
 40
0.2
 49
0.1
 74
0
 49
-0.1
 74
0
  0
LTYPE
  5
1F7
100
AcDbSymbolTableRecord
100
AcDbLinetypeTableRecord
  2
PHANTOM
 70
64
  3
_____ _ _ _____ _ _ _____ _ _ _____
 72
65
 73
6
 40
0.8
 49
0.45
 74
0
 49
-0.05
 74
0
 49
0.1
 74
0
 49
-0.05
 74
0
 49
0.1
 74
0
 49
-0.05
 74
0
  0
LTYPE
  5
1F8
100
AcDbSymbolTableRecord
100
AcDbLinetypeTableRecord
  2
DOT
 70
64
  3
. . . . . . . . . . . . . . . . . . . .
 72
65
 73
2
 40
0.2
 49
0.1
 74
0
 49
-0.1
 74
0
  0
LTYPE
  5
1F9
100
AcDbSymbolTableRecord
100
AcDbLinetypeTableRecord
  2
DASHED
 70
64
  3
- - - - - - - - - - - - - - - - - - - -
 72
65
 73
2
 40
0.2
 49
0.1
 74
0
 49
-0.1
 74
0
  0
ENDTAB
  0
TABLE
  2
LAYER
  5
2
100
AcDbSymbolTable
 70
36
  0
LAYER
  5
10
100
AcDbSymbolTableRecord
100
AcDbLayerTableRecord
  2
0
 70
0
 62
7
  6
CONTINUOUS
370
-3
390
F
  0
LAYER
  5
1FA
100
AcDbSymbolTableRecord
100
AcDbLayerTableRecord
  2
DEFAULT_1
 70
0
 62
7
  6
CENTER
370
-3
390
F
  0
LAYER
  5
1FB
100
AcDbSymbolTableRecord
100
AcDbLayerTableRecord
  2
DEFAULT_2
 70
0
 62
8
  6
HIDDEN
370
-3
390
F
  0
LAYER
  5
1FC
100
AcDbSymbolTableRecord
100
AcDbLayerTableRecord
  2
DEFAULT_3
 70
0
 62
7
  6
PHANTOM
370
-3
390
F
  0
LAYER
  5
1FD
100
AcDbSymbolTableRecord
100
AcDbLayerTableRecord
  2
00_SKELETON
 70
0
 62
7
  6
CONTINUOUS
370
-3
390
F
  0
LAYER
  5
1FE
100
AcDbSymbolTableRecord
100
AcDbLayerTableRecord
  2
ALL_DIMENSIONS
 70
0
 62
7
  6
CONTINUOUS
370
-3
390
F
  0
LAYER
  5
1FF
100
AcDbSymbolTableRecord
100
AcDbLayerTableRecord
  2
ALL_FEATURES
 70
0
 62
7
  6
CONTINUOUS
370
-3
390
F
  0
LAYER
  5
200
100
AcDbSymbolTableRecord
100
AcDbLayerTableRecord
  2
ASSY_MEM
 70
0
 62
7
  6
CONTINUOUS
370
-3
390
F
  0
LAYER
  5
201
100
AcDbSymbolTableRecord
100
AcDbLayerTableRecord
  2
CURVE
 70
0
 62
7
  6
CONTINUOUS
370
-3
390
F
  0
LAYER
  5
202
100
AcDbSymbolTableRecord
100
AcDbLayerTableRecord
  2
CUT_FEATS
 70
0
 62
7
  6
CONTINUOUS
370
-3
390
F
  0
LAYER
  5
203
100
AcDbSymbolTableRecord
100
AcDbLayerTableRecord
  2
DATUM-DEFAULT_ASM
 70
0
 62
7
  6
CONTINUOUS
370
-3
390
F
  0
LAYER
  5
204
100
AcDbSymbolTableRecord
100
AcDbLayerTableRecord
  2
DATUM-DEFAULT_LIB
 70
0
 62
7
  6
CONTINUOUS
370
-3
390
F
  0
LAYER
  5
205
100
AcDbSymbolTableRecord
100
AcDbLayerTableRecord
  2
DATUM_AXIS
 70
0
 62
7
  6
CONTINUOUS
370
-3
390
F
  0
LAYER
  5
206
100
AcDbSymbolTableRecord
100
AcDbLayerTableRecord
  2
DATUM_CSYS
 70
0
 62
7
  6
CONTINUOUS
370
-3
390
F
  0
LAYER
  5
207
100
AcDbSymbolTableRecord
100
AcDbLayerTableRecord
  2
DATUM_PLANE
 70
0
 62
7
  6
CONTINUOUS
370
-3
390
F
  0
LAYER
  5
208
100
AcDbSymbolTableRecord
100
AcDbLayerTableRecord
  2
DATUM_POINT
 70
0
 62
7
  6
CONTINUOUS
370
-3
390
F
  0
LAYER
  5
209
100
AcDbSymbolTableRecord
100
AcDbLayerTableRecord
  2
GEOM_FEATURE
 70
0
 62
7
  6
CONTINUOUS
370
-3
390
F
  0
LAYER
  5
20A
100
AcDbSymbolTableRecord
100
AcDbLayerTableRecord
  2
NOTE
 70
0
 62
7
  6
CONTINUOUS
370
-3
390
F
  0
LAYER
  5
20B
100
AcDbSymbolTableRecord
100
AcDbLayerTableRecord
  2
PARAM_DIMENSION
 70
0
 62
7
  6
CONTINUOUS
370
-3
390
F
  0
LAYER
  5
20C
100
AcDbSymbolTableRecord
100
AcDbLayerTableRecord
  2
PROTRUSION_FEATS
 70
0
 62
7
  6
CONTINUOUS
370
-3
390
F
  0
LAYER
  5
20D
100
AcDbSymbolTableRecord
100
AcDbLayerTableRecord
  2
QUILT
 70
0
 62
7
  6
CONTINUOUS
370
-3
390
F
  0
LAYER
  5
20E
100
AcDbSymbolTableRecord
100
AcDbLayerTableRecord
  2
SURFACE
 70
0
 62
7
  6
CONTINUOUS
370
-3
390
F
  0
LAYER
  5
20F
100
AcDbSymbolTableRecord
100
AcDbLayerTableRecord
  2
THREAD
 70
0
 62
7
  6
CONTINUOUS
370
-3
390
F
  0
ENDTAB
  0
TABLE
  2
STYLE
  5
3
100
AcDbSymbolTable
 70
1
  0
STYLE
  5
11
100
AcDbSymbolTableRecord
100
AcDbTextStyleTableRecord
  2
STANDARD
 70
0
 40
0.0
 41
0.67
 50
0.0
 71
0
 42
0.2
  3
txt
  4

  0
STYLE
  5
210
100
AcDbSymbolTableRecord
100
AcDbTextStyleTableRecord
  2
TEXTSTYLE_1
 70
0
 40
0.0
 41
0.8
 50
0.0
 71
0
 42
0.2
  3
gdt
  4

  0
ENDTAB
  0
TABLE
  2
VIEW
  5
6
100
AcDbSymbolTable
 70
0
  0
ENDTAB
  0
TABLE
  2
UCS
  5
7
100
AcDbSymbolTable
 70
0
  0
ENDTAB
  0
TABLE
  2
APPID
  5
9
100
AcDbSymbolTable
 70
1
  0
APPID
  5
211
100
AcDbSymbolTableRecord
100
AcDbRegAppTableRecord
  2
ACAD
 70
0
  0
ENDTAB
  0
TABLE
  2
BLOCK_RECORD
  5
1
100
AcDbSymbolTable
 70
0
  0
BLOCK_RECORD
  5
212
100
AcDbSymbolTableRecord
100
AcDbBlockTableRecord
  2
*Model_Space
  0
BLOCK_RECORD
  5
213
100
AcDbSymbolTableRecord
100
AcDbBlockTableRecord
  2
*Paper_Space
  0
ENDTAB
  0
TABLE
  2
DIMSTYLE
  5
A
100
AcDbSymbolTable
 70
1
100
AcDbDimStyleTable
 71
0
  0
DIMSTYLE
105
214
100
AcDbSymbolTableRecord
100
AcDbDimStyleTableRecord
  2
STANDARD
 70
0
  3

  4

 40
1.0
 41
5.0
 42
0.0625
 43
0.38
 44
0.18
 45
0.0
 46
0.0
 47
0.1
 48
0.1
140
3.2
141
0.09
142
0.0
143
25.4
144
1.0
145
0.0
146
1.0
147
0.09
 71
1.0
 72
0.0
 73
0
 74
0
 75
0
 76
0
 77
1
 78
8
170
0
171
2
172
0
173
0
174
0
175
0
176
0
177
0
178
5
270
2
271
1
272
1
273
2
274
2
275
0
280
0
281
0
282
0
283
1
284
8
285
0
286
0
287
3
288
0
340
11
  0
ENDTAB
  0
ENDSEC
  0
SECTION
  2
BLOCKS
  0
BLOCK
  5
20
100
AcDbEntity
  8
0
100
AcDbBlockBegin
  2
*Model_Space
 70
0
 10
0.0
 20
0.0
 30
0.0
  3
*Model_Space
  1

  0
ENDBLK
  5
21
100
AcDbEntity
  8
0
100
AcDbBlockEnd
  0
BLOCK
  5
1C
100
AcDbEntity
  8
0
100
AcDbBlockBegin
  2
*Paper_Space
 70
0
 10
0.0
 20
0.0
 30
0.0
  3
*Paper_Space
  1

  0
ENDBLK
  5
1D
100
AcDbEntity
  8
0
100
AcDbBlockEnd
  0
ENDSEC
  0
SECTION
  2
ENTITIES
  0
LINE
  5
215
100
AcDbEntity
  8
ASSY_MEM
100
AcDbLine
 62
7
  6
CONTINUOUS
 10
-1254.2936521089
 20
-244.9234367094
 11
-1254.2936521089
 21
-77.1456589316
  0
LINE
  5
216
100
AcDbEntity
  8
ASSY_MEM
100
AcDbLine
 62
7
  6
CONTINUOUS
 10
-1254.2936521089
 20
-17.1234367094
 11
-1254.2936521089
 21
150.6543410684
  0
LINE
  5
217
100
AcDbEntity
  8
ASSY_MEM
100
AcDbLine
 62
7
  6
CONTINUOUS
 10
-1254.2936521089
 20
210.6765632906
 11
-1254.2936521089
 21
378.4543410684
  0
LINE
  5
218
100
AcDbEntity
  8
ASSY_MEM
100
AcDbLine
 62
7
  6
CONTINUOUS
 10
-1254.2936521089
 20
438.4765632906
 11
-1254.2936521089
 21
606.2543410684
  0
LINE
  5
219
100
AcDbEntity
  8
ASSY_MEM
100
AcDbLine
 62
7
  6
CONTINUOUS
 10
-1100.6436521089
 20
-85.6456589316
 11
-1100.6436521089
 21
-80.4456589316
  0
LINE
  5
21A
100
AcDbEntity
  8
ASSY_MEM
100
AcDbLine
 62
7
  6
CONTINUOUS
 10
-1100.6436521089
 20
142.1543410684
 11
-1100.6436521089
 21
147.3543410684
  0
LINE
  5
21B
100
AcDbEntity
  8
ASSY_MEM
100
AcDbLine
 62
7
  6
CONTINUOUS
 10
-1100.6436521089
 20
369.9543410684
 11
-1100.6436521089
 21
375.1543410684
  0
LINE
  5
21C
100
AcDbEntity
  8
ASSY_MEM
100
AcDbLine
 62
7
  6
CONTINUOUS
 10
-1100.6436521089
 20
597.7543410684
 11
-1100.6436521089
 21
602.9543410684
  0
LINE
  5
21D
100
AcDbEntity
  8
ASSY_MEM
100
AcDbLine
 62
7
  6
CONTINUOUS
 10
-1095.4436521089
 20
602.9543410684
 11
-1095.4436521089
 21
597.7543410684
  0
LINE
  5
21E
100
AcDbEntity
  8
ASSY_MEM
100
AcDbLine
 62
7
  6
CONTINUOUS
 10
-1095.4436521089
 20
375.1543410684
 11
-1095.4436521089
 21
369.9543410684
  0
LINE
  5
21F
100
AcDbEntity
  8
ASSY_MEM
100
AcDbLine
 62
7
  6
CONTINUOUS
 10
-1095.4436521089
 20
147.3543410684
 11
-1095.4436521089
 21
142.1543410684
  0
LINE
  5
220
100
AcDbEntity
  8
ASSY_MEM
100
AcDbLine
 62
7
  6
CONTINUOUS
 10
-1095.4436521089
 20
-80.4456589316
 11
-1095.4436521089
 21
-85.6456589316
  0
LINE
  5
221
100
AcDbEntity
  8
ASSY_MEM
100
AcDbLine
 62
7
  6
CONTINUOUS
 10
-941.7936521089
 20
606.2543410684
 11
-941.7936521089
 21
438.4765632906
  0
LINE
  5
222
100
AcDbEntity
  8
ASSY_MEM
100
AcDbLine
 62
7
  6
CONTINUOUS
 10
-941.7936521089
 20
378.4543410684
 11
-941.7936521089
 21
210.6765632906
  0
LINE
  5
223
100
AcDbEntity
  8
ASSY_MEM
100
AcDbLine
 62
7
  6
CONTINUOUS
 10
-941.7936521089
 20
150.6543410684
 11
-941.7936521089
 21
-17.1234367094
  0
LINE
  5
224
100
AcDbEntity
  8
ASSY_MEM
100
AcDbLine
 62
7
  6
CONTINUOUS
 10
-941.7936521089
 20
-244.9234367094
 11
-941.7936521089
 21
-77.1456589316
  0
LINE
  5
225
100
AcDbEntity
  8
ASSY_MEM
100
AcDbLine
 62
7
  6
CONTINUOUS
 10
-788.1436521089
 20
-85.6456589316
 11
-788.1436521089
 21
-80.4456589316
  0
LINE
  5
226
100
AcDbEntity
  8
ASSY_MEM
100
AcDbLine
 62
7
  6
CONTINUOUS
 10
-788.1436521089
 20
142.1543410684
 11
-788.1436521089
 21
147.3543410684
  0
LINE
  5
227
100
AcDbEntity
  8
ASSY_MEM
100
AcDbLine
 62
7
  6
CONTINUOUS
 10
-788.1436521089
 20
369.9543410684
 11
-788.1436521089
 21
375.1543410684
  0
LINE
  5
228
100
AcDbEntity
  8
ASSY_MEM
100
AcDbLine
 62
7
  6
CONTINUOUS
 10
-788.1436521089
 20
597.7543410684
 11
-788.1436521089
 21
602.9543410684
  0
LINE
  5
229
100
AcDbEntity
  8
ASSY_MEM
100
AcDbLine
 62
7
  6
CONTINUOUS
 10
-782.9436521089
 20
602.9543410684
 11
-782.9436521089
 21
597.7543410684
  0
LINE
  5
22A
100
AcDbEntity
  8
ASSY_MEM
100
AcDbLine
 62
7
  6
CONTINUOUS
 10
-782.9436521089
 20
375.1543410684
 11
-782.9436521089
 21
369.9543410684
  0
LINE
  5
22B
100
AcDbEntity
  8
ASSY_MEM
100
AcDbLine
 62
7
  6
CONTINUOUS
 10
-782.9436521089
 20
147.3543410684
 11
-782.9436521089
 21
142.1543410684
  0
LINE
  5
22C
100
AcDbEntity
  8
ASSY_MEM
100
AcDbLine
 62
7
  6
CONTINUOUS
 10
-782.9436521089
 20
-80.4456589316
 11
-782.9436521089
 21
-85.6456589316
  0
LINE
  5
22D
100
AcDbEntity
  8
ASSY_MEM
100
AcDbLine
 62
7
  6
CONTINUOUS
 10
-629.2936521089
 20
606.2543410684
 11
-629.2936521089
 21
438.4765632906
  0
LINE
  5
22E
100
AcDbEntity
  8
ASSY_MEM
100
AcDbLine
 62
7
  6
CONTINUOUS
 10
-629.2936521089
 20
378.4543410684
 11
-629.2936521089
 21
210.6765632906
  0
LINE
  5
22F
100
AcDbEntity
  8
ASSY_MEM
100
AcDbLine
 62
7
  6
CONTINUOUS
 10
-629.2936521089
 20
150.6543410684
 11
-629.2936521089
 21
-17.1234367094
  0
LINE
  5
230
100
AcDbEntity
  8
ASSY_MEM
100
AcDbLine
 62
7
  6
CONTINUOUS
 10
-629.2936521089
 20
-244.9234367094
 11
-629.2936521089
 21
-77.1456589316
  0
LINE
  5
231
100
AcDbEntity
  8
ASSY_MEM
100
AcDbLine
 62
7
  6
CONTINUOUS
 10
-475.6436521089
 20
-85.6456589316
 11
-475.6436521089
 21
-80.4456589316
  0
LINE
  5
232
100
AcDbEntity
  8
ASSY_MEM
100
AcDbLine
 62
7
  6
CONTINUOUS
 10
-475.6436521089
 20
142.1543410684
 11
-475.6436521089
 21
147.3543410684
  0
LINE
  5
233
100
AcDbEntity
  8
ASSY_MEM
100
AcDbLine
 62
7
  6
CONTINUOUS
 10
-475.6436521089
 20
369.9543410684
 11
-475.6436521089
 21
375.1543410684
  0
LINE
  5
234
100
AcDbEntity
  8
ASSY_MEM
100
AcDbLine
 62
7
  6
CONTINUOUS
 10
-475.6436521089
 20
597.7543410684
 11
-475.6436521089
 21
602.9543410684
  0
LINE
  5
235
100
AcDbEntity
  8
ASSY_MEM
100
AcDbLine
 62
7
  6
CONTINUOUS
 10
-470.4436521089
 20
602.9543410684
 11
-470.4436521089
 21
597.7543410684
  0
LINE
  5
236
100
AcDbEntity
  8
ASSY_MEM
100
AcDbLine
 62
7
  6
CONTINUOUS
 10
-470.4436521089
 20
375.1543410684
 11
-470.4436521089
 21
369.9543410684
  0
LINE
  5
237
100
AcDbEntity
  8
ASSY_MEM
100
AcDbLine
 62
7
  6
CONTINUOUS
 10
-470.4436521089
 20
147.3543410684
 11
-470.4436521089
 21
142.1543410684
  0
LINE
  5
238
100
AcDbEntity
  8
ASSY_MEM
100
AcDbLine
 62
7
  6
CONTINUOUS
 10
-470.4436521089
 20
-80.4456589316
 11
-470.4436521089
 21
-85.6456589316
  0
LINE
  5
239
100
AcDbEntity
  8
ASSY_MEM
100
AcDbLine
 62
7
  6
CONTINUOUS
 10
-316.7936521089
 20
606.2543410684
 11
-316.7936521089
 21
438.4765632906
  0
LINE
  5
23A
100
AcDbEntity
  8
ASSY_MEM
100
AcDbLine
 62
7
  6
CONTINUOUS
 10
-316.7936521089
 20
378.4543410684
 11
-316.7936521089
 21
210.6765632906
  0
LINE
  5
23B
100
AcDbEntity
  8
ASSY_MEM
100
AcDbLine
 62
7
  6
CONTINUOUS
 10
-316.7936521089
 20
150.6543410684
 11
-316.7936521089
 21
-17.1234367094
  0
LINE
  5
23C
100
AcDbEntity
  8
ASSY_MEM
100
AcDbLine
 62
7
  6
CONTINUOUS
 10
-316.7936521089
 20
-244.9234367094
 11
-316.7936521089
 21
-77.1456589316
  0
LINE
  5
23D
100
AcDbEntity
  8
ASSY_MEM
100
AcDbLine
 62
7
  6
CONTINUOUS
 10
1508.2063478911
 20
-294.9234367094
 11
1295.7063478911
 21
-294.9234367094
  0
LINE
  5
23E
100
AcDbEntity
  8
ASSY_MEM
100
AcDbLine
 62
7
  6
CONTINUOUS
 10
1195.7063478911
 20
-294.9234367094
 11
983.2063478911
 21
-294.9234367094
  0
LINE
  5
23F
100
AcDbEntity
  8
ASSY_MEM
100
AcDbLine
 62
7
  6
CONTINUOUS
 10
883.2063478911
 20
-294.9234367094
 11
670.7063478911
 21
-294.9234367094
  0
LINE
  5
240
100
AcDbEntity
  8
ASSY_MEM
100
AcDbLine
 62
7
  6
CONTINUOUS
 10
570.7063478911
 20
-294.9234367094
 11
358.2063478911
 21
-294.9234367094
  0
LINE
  5
241
100
AcDbEntity
  8
ASSY_MEM
100
AcDbLine
 62
7
  6
CONTINUOUS
 10
258.2063478911
 20
-294.9234367094
 11
45.7063478911
 21
-294.9234367094
  0
LINE
  5
242
100
AcDbEntity
  8
ASSY_MEM
100
AcDbLine
 62
7
  6
CONTINUOUS
 10
-54.2936521089
 20
-294.9234367094
 11
-266.7936521089
 21
-294.9234367094
  0
LINE
  5
243
100
AcDbEntity
  8
ASSY_MEM
100
AcDbLine
 62
7
  6
CONTINUOUS
 10
-366.7936521089
 20
-294.9234367094
 11
-579.2936521089
 21
-294.9234367094
  0
LINE
  5
244
100
AcDbEntity
  8
ASSY_MEM
100
AcDbLine
 62
7
  6
CONTINUOUS
 10
-679.2936521089
 20
-294.9234367094
 11
-891.7936521089
 21
-294.9234367094
  0
LINE
  5
245
100
AcDbEntity
  8
ASSY_MEM
100
AcDbLine
 62
7
  6
CONTINUOUS
 10
-991.7936521089
 20
-294.9234367094
 11
-1204.2936521089
 21
-294.9234367094
  0
LINE
  5
246
100
AcDbEntity
  8
ASSY_MEM
100
AcDbLine
 62
7
  6
CONTINUOUS
 10
-163.1436521089
 20
-85.6456589316
 11
-163.1436521089
 21
-80.4456589316
  0
LINE
  5
247
100
AcDbEntity
  8
ASSY_MEM
100
AcDbLine
 62
7
  6
CONTINUOUS
 10
-163.1436521089
 20
142.1543410684
 11
-163.1436521089
 21
147.3543410684
  0
LINE
  5
248
100
AcDbEntity
  8
ASSY_MEM
100
AcDbLine
 62
7
  6
CONTINUOUS
 10
-163.1436521089
 20
369.9543410684
 11
-163.1436521089
 21
375.1543410684
  0
LINE
  5
249
100
AcDbEntity
  8
ASSY_MEM
100
AcDbLine
 62
7
  6
CONTINUOUS
 10
-163.1436521089
 20
597.7543410684
 11
-163.1436521089
 21
602.9543410684
  0
LINE
  5
24A
100
AcDbEntity
  8
ASSY_MEM
100
AcDbLine
 62
7
  6
CONTINUOUS
 10
-157.9436521089
 20
602.9543410684
 11
-157.9436521089
 21
597.7543410684
  0
LINE
  5
24B
100
AcDbEntity
  8
ASSY_MEM
100
AcDbLine
 62
7
  6
CONTINUOUS
 10
-157.9436521089
 20
375.1543410684
 11
-157.9436521089
 21
369.9543410684
  0
LINE
  5
24C
100
AcDbEntity
  8
ASSY_MEM
100
AcDbLine
 62
7
  6
CONTINUOUS
 10
-157.9436521089
 20
147.3543410684
 11
-157.9436521089
 21
142.1543410684
  0
LINE
  5
24D
100
AcDbEntity
  8
ASSY_MEM
100
AcDbLine
 62
7
  6
CONTINUOUS
 10
-157.9436521089
 20
-80.4456589316
 11
-157.9436521089
 21
-85.6456589316
  0
LINE
  5
24E
100
AcDbEntity
  8
ASSY_MEM
100
AcDbLine
 62
7
  6
CONTINUOUS
 10
1404.5563478911
 20
-85.6456589316
 11
1399.3563478911
 21
-85.6456589316
  0
LINE
  5
24F
100
AcDbEntity
  8
ASSY_MEM
100
AcDbLine
 62
7
  6
CONTINUOUS
 10
1092.0563478911
 20
-85.6456589316
 11
1086.8563478911
 21
-85.6456589316
  0
LINE
  5
250
100
AcDbEntity
  8
ASSY_MEM
100
AcDbLine
 62
7
  6
CONTINUOUS
 10
779.5563478911
 20
-85.6456589316
 11
774.3563478911
 21
-85.6456589316
  0
LINE
  5
251
100
AcDbEntity
  8
ASSY_MEM
100
AcDbLine
 62
7
  6
CONTINUOUS
 10
467.0563478911
 20
-85.6456589316
 11
461.8563478911
 21
-85.6456589316
  0
LINE
  5
252
100
AcDbEntity
  8
ASSY_MEM
100
AcDbLine
 62
7
  6
CONTINUOUS
 10
154.5563478911
 20
-85.6456589316
 11
149.3563478911
 21
-85.6456589316
  0
LINE
  5
253
100
AcDbEntity
  8
ASSY_MEM
100
AcDbLine
 62
7
  6
CONTINUOUS
 10
-157.9436521089
 20
-85.6456589316
 11
-163.1436521089
 21
-85.6456589316
  0
LINE
  5
254
100
AcDbEntity
  8
ASSY_MEM
100
AcDbLine
 62
7
  6
CONTINUOUS
 10
-470.4436521089
 20
-85.6456589316
 11
-475.6436521089
 21
-85.6456589316
  0
LINE
  5
255
100
AcDbEntity
  8
ASSY_MEM
100
AcDbLine
 62
7
  6
CONTINUOUS
 10
-782.9436521089
 20
-85.6456589316
 11
-788.1436521089
 21
-85.6456589316
  0
LINE
  5
256
100
AcDbEntity
  8
ASSY_MEM
100
AcDbLine
 62
7
  6
CONTINUOUS
 10
-1095.4436521089
 20
-85.6456589316
 11
-1100.6436521089
 21
-85.6456589316
  0
LINE
  5
257
100
AcDbEntity
  8
ASSY_MEM
100
AcDbLine
 62
7
  6
CONTINUOUS
 10
-1100.6436521089
 20
-80.4456589316
 11
-1095.4436521089
 21
-80.4456589316
  0
LINE
  5
258
100
AcDbEntity
  8
ASSY_MEM
100
AcDbLine
 62
7
  6
CONTINUOUS
 10
-788.1436521089
 20
-80.4456589316
 11
-782.9436521089
 21
-80.4456589316
  0
LINE
  5
259
100
AcDbEntity
  8
ASSY_MEM
100
AcDbLine
 62
7
  6
CONTINUOUS
 10
-475.6436521089
 20
-80.4456589316
 11
-470.4436521089
 21
-80.4456589316
  0
LINE
  5
25A
100
AcDbEntity
  8
ASSY_MEM
100
AcDbLine
 62
7
  6
CONTINUOUS
 10
-163.1436521089
 20
-80.4456589316
 11
-157.9436521089
 21
-80.4456589316
  0
LINE
  5
25B
100
AcDbEntity
  8
ASSY_MEM
100
AcDbLine
 62
7
  6
CONTINUOUS
 10
149.3563478911
 20
-80.4456589316
 11
154.5563478911
 21
-80.4456589316
  0
LINE
  5
25C
100
AcDbEntity
  8
ASSY_MEM
100
AcDbLine
 62
7
  6
CONTINUOUS
 10
461.8563478911
 20
-80.4456589316
 11
467.0563478911
 21
-80.4456589316
  0
LINE
  5
25D
100
AcDbEntity
  8
ASSY_MEM
100
AcDbLine
 62
7
  6
CONTINUOUS
 10
774.3563478911
 20
-80.4456589316
 11
779.5563478911
 21
-80.4456589316
  0
LINE
  5
25E
100
AcDbEntity
  8
ASSY_MEM
100
AcDbLine
 62
7
  6
CONTINUOUS
 10
1086.8563478911
 20
-80.4456589316
 11
1092.0563478911
 21
-80.4456589316
  0
LINE
  5
25F
100
AcDbEntity
  8
ASSY_MEM
100
AcDbLine
 62
7
  6
CONTINUOUS
 10
1399.3563478911
 20
-80.4456589316
 11
1404.5563478911
 21
-80.4456589316
  0
LINE
  5
260
100
AcDbEntity
  8
ASSY_MEM
100
AcDbLine
 62
7
  6
CONTINUOUS
 10
-1244.2936521089
 20
-67.1456589316
 11
-951.7936521089
 21
-67.1456589316
  0
LINE
  5
261
100
AcDbEntity
  8
ASSY_MEM
100
AcDbLine
 62
7
  6
CONTINUOUS
 10
-931.7936521089
 20
-67.1456589316
 11
-639.2936521089
 21
-67.1456589316
  0
LINE
  5
262
100
AcDbEntity
  8
ASSY_MEM
100
AcDbLine
 62
7
  6
CONTINUOUS
 10
-619.2936521089
 20
-67.1456589316
 11
-326.7936521089
 21
-67.1456589316
  0
LINE
  5
263
100
AcDbEntity
  8
ASSY_MEM
100
AcDbLine
 62
7
  6
CONTINUOUS
 10
-306.7936521089
 20
-67.1456589316
 11
-14.2936521089
 21
-67.1456589316
  0
LINE
  5
264
100
AcDbEntity
  8
ASSY_MEM
100
AcDbLine
 62
7
  6
CONTINUOUS
 10
5.7063478911
 20
-67.1456589316
 11
298.2063478911
 21
-67.1456589316
  0
LINE
  5
265
100
AcDbEntity
  8
ASSY_MEM
100
AcDbLine
 62
7
  6
CONTINUOUS
 10
318.2063478911
 20
-67.1456589316
 11
610.7063478911
 21
-67.1456589316
  0
LINE
  5
266
100
AcDbEntity
  8
ASSY_MEM
100
AcDbLine
 62
7
  6
CONTINUOUS
 10
630.7063478911
 20
-67.1456589316
 11
923.2063478911
 21
-67.1456589316
  0
LINE
  5
267
100
AcDbEntity
  8
ASSY_MEM
100
AcDbLine
 62
7
  6
CONTINUOUS
 10
943.2063478911
 20
-67.1456589316
 11
1235.7063478911
 21
-67.1456589316
  0
LINE
  5
268
100
AcDbEntity
  8
ASSY_MEM
100
AcDbLine
 62
7
  6
CONTINUOUS
 10
1255.7063478911
 20
-67.1456589316
 11
1548.2063478911
 21
-67.1456589316
  0
LINE
  5
269
100
AcDbEntity
  8
ASSY_MEM
100
AcDbLine
 62
7
  6
CONTINUOUS
 10
1508.2063478911
 20
-67.1234367094
 11
1295.7063478911
 21
-67.1234367094
  0
LINE
  5
26A
100
AcDbEntity
  8
ASSY_MEM
100
AcDbLine
 62
7
  6
CONTINUOUS
 10
1195.7063478911
 20
-67.1234367094
 11
983.2063478911
 21
-67.1234367094
  0
LINE
  5
26B
100
AcDbEntity
  8
ASSY_MEM
100
AcDbLine
 62
7
  6
CONTINUOUS
 10
883.2063478911
 20
-67.1234367094
 11
670.7063478911
 21
-67.1234367094
  0
LINE
  5
26C
100
AcDbEntity
  8
ASSY_MEM
100
AcDbLine
 62
7
  6
CONTINUOUS
 10
570.7063478911
 20
-67.1234367094
 11
358.2063478911
 21
-67.1234367094
  0
LINE
  5
26D
100
AcDbEntity
  8
ASSY_MEM
100
AcDbLine
 62
7
  6
CONTINUOUS
 10
258.2063478911
 20
-67.1234367094
 11
45.7063478911
 21
-67.1234367094
  0
LINE
  5
26E
100
AcDbEntity
  8
ASSY_MEM
100
AcDbLine
 62
7
  6
CONTINUOUS
 10
-54.2936521089
 20
-67.1234367094
 11
-266.7936521089
 21
-67.1234367094
  0
LINE
  5
26F
100
AcDbEntity
  8
ASSY_MEM
100
AcDbLine
 62
7
  6
CONTINUOUS
 10
-366.7936521089
 20
-67.1234367094
 11
-579.2936521089
 21
-67.1234367094
  0
LINE
  5
270
100
AcDbEntity
  8
ASSY_MEM
100
AcDbLine
 62
7
  6
CONTINUOUS
 10
-679.2936521089
 20
-67.1234367094
 11
-891.7936521089
 21
-67.1234367094
  0
LINE
  5
271
100
AcDbEntity
  8
ASSY_MEM
100
AcDbLine
 62
7
  6
CONTINUOUS
 10
-991.7936521089
 20
-67.1234367094
 11
-1204.2936521089
 21
-67.1234367094
  0
LINE
  5
272
100
AcDbEntity
  8
ASSY_MEM
100
AcDbLine
 62
7
  6
CONTINUOUS
 10
-4.2936521089
 20
606.2543410684
 11
-4.2936521089
 21
438.4765632906
  0
LINE
  5
273
100
AcDbEntity
  8
ASSY_MEM
100
AcDbLine
 62
7
  6
CONTINUOUS
 10
-4.2936521089
 20
378.4543410684
 11
-4.2936521089
 21
210.6765632906
  0
LINE
  5
274
100
AcDbEntity
  8
ASSY_MEM
100
AcDbLine
 62
7
  6
CONTINUOUS
 10
-4.2936521089
 20
150.6543410684
 11
-4.2936521089
 21
-17.1234367094
  0
LINE
  5
275
100
AcDbEntity
  8
ASSY_MEM
100
AcDbLine
 62
7
  6
CONTINUOUS
 10
-4.2936521089
 20
-244.9234367094
 11
-4.2936521089
 21
-77.1456589316
  0
LINE
  5
276
100
AcDbEntity
  8
ASSY_MEM
100
AcDbLine
 62
7
  6
CONTINUOUS
 10
149.3563478911
 20
-85.6456589316
 11
149.3563478911
 21
-80.4456589316
  0
LINE
  5
277
100
AcDbEntity
  8
ASSY_MEM
100
AcDbLine
 62
7
  6
CONTINUOUS
 10
149.3563478911
 20
142.1543410684
 11
149.3563478911
 21
147.3543410684
  0
LINE
  5
278
100
AcDbEntity
  8
ASSY_MEM
100
AcDbLine
 62
7
  6
CONTINUOUS
 10
149.3563478911
 20
369.9543410684
 11
149.3563478911
 21
375.1543410684
  0
LINE
  5
279
100
AcDbEntity
  8
ASSY_MEM
100
AcDbLine
 62
7
  6
CONTINUOUS
 10
149.3563478911
 20
597.7543410684
 11
149.3563478911
 21
602.9543410684
  0
LINE
  5
27A
100
AcDbEntity
  8
ASSY_MEM
100
AcDbLine
 62
7
  6
CONTINUOUS
 10
154.5563478911
 20
602.9543410684
 11
154.5563478911
 21
597.7543410684
  0
LINE
  5
27B
100
AcDbEntity
  8
ASSY_MEM
100
AcDbLine
 62
7
  6
CONTINUOUS
 10
154.5563478911
 20
375.1543410684
 11
154.5563478911
 21
369.9543410684
  0
LINE
  5
27C
100
AcDbEntity
  8
ASSY_MEM
100
AcDbLine
 62
7
  6
CONTINUOUS
 10
154.5563478911
 20
147.3543410684
 11
154.5563478911
 21
142.1543410684
  0
LINE
  5
27D
100
AcDbEntity
  8
ASSY_MEM
100
AcDbLine
 62
7
  6
CONTINUOUS
 10
154.5563478911
 20
-80.4456589316
 11
154.5563478911
 21
-85.6456589316
  0
LINE
  5
27E
100
AcDbEntity
  8
ASSY_MEM
100
AcDbLine
 62
7
  6
CONTINUOUS
 10
1404.5563478911
 20
142.1543410684
 11
1399.3563478911
 21
142.1543410684
  0
LINE
  5
27F
100
AcDbEntity
  8
ASSY_MEM
100
AcDbLine
 62
7
  6
CONTINUOUS
 10
1092.0563478911
 20
142.1543410684
 11
1086.8563478911
 21
142.1543410684
  0
LINE
  5
280
100
AcDbEntity
  8
ASSY_MEM
100
AcDbLine
 62
7
  6
CONTINUOUS
 10
779.5563478911
 20
142.1543410684
 11
774.3563478911
 21
142.1543410684
  0
LINE
  5
281
100
AcDbEntity
  8
ASSY_MEM
100
AcDbLine
 62
7
  6
CONTINUOUS
 10
467.0563478911
 20
142.1543410684
 11
461.8563478911
 21
142.1543410684
  0
LINE
  5
282
100
AcDbEntity
  8
ASSY_MEM
100
AcDbLine
 62
7
  6
CONTINUOUS
 10
154.5563478911
 20
142.1543410684
 11
149.3563478911
 21
142.1543410684
  0
LINE
  5
283
100
AcDbEntity
  8
ASSY_MEM
100
AcDbLine
 62
7
  6
CONTINUOUS
 10
-157.9436521089
 20
142.1543410684
 11
-163.1436521089
 21
142.1543410684
  0
LINE
  5
284
100
AcDbEntity
  8
ASSY_MEM
100
AcDbLine
 62
7
  6
CONTINUOUS
 10
-470.4436521089
 20
142.1543410684
 11
-475.6436521089
 21
142.1543410684
  0
LINE
  5
285
100
AcDbEntity
  8
ASSY_MEM
100
AcDbLine
 62
7
  6
CONTINUOUS
 10
-782.9436521089
 20
142.1543410684
 11
-788.1436521089
 21
142.1543410684
  0
LINE
  5
286
100
AcDbEntity
  8
ASSY_MEM
100
AcDbLine
 62
7
  6
CONTINUOUS
 10
-1095.4436521089
 20
142.1543410684
 11
-1100.6436521089
 21
142.1543410684
  0
LINE
  5
287
100
AcDbEntity
  8
ASSY_MEM
100
AcDbLine
 62
7
  6
CONTINUOUS
 10
-1100.6436521089
 20
147.3543410684
 11
-1095.4436521089
 21
147.3543410684
  0
LINE
  5
288
100
AcDbEntity
  8
ASSY_MEM
100
AcDbLine
 62
7
  6
CONTINUOUS
 10
-788.1436521089
 20
147.3543410684
 11
-782.9436521089
 21
147.3543410684
  0
LINE
  5
289
100
AcDbEntity
  8
ASSY_MEM
100
AcDbLine
 62
7
  6
CONTINUOUS
 10
-475.6436521089
 20
147.3543410684
 11
-470.4436521089
 21
147.3543410684
  0
LINE
  5
28A
100
AcDbEntity
  8
ASSY_MEM
100
AcDbLine
 62
7
  6
CONTINUOUS
 10
-163.1436521089
 20
147.3543410684
 11
-157.9436521089
 21
147.3543410684
  0
LINE
  5
28B
100
AcDbEntity
  8
ASSY_MEM
100
AcDbLine
 62
7
  6
CONTINUOUS
 10
149.3563478911
 20
147.3543410684
 11
154.5563478911
 21
147.3543410684
  0
LINE
  5
28C
100
AcDbEntity
  8
ASSY_MEM
100
AcDbLine
 62
7
  6
CONTINUOUS
 10
461.8563478911
 20
147.3543410684
 11
467.0563478911
 21
147.3543410684
  0
LINE
  5
28D
100
AcDbEntity
  8
ASSY_MEM
100
AcDbLine
 62
7
  6
CONTINUOUS
 10
774.3563478911
 20
147.3543410684
 11
779.5563478911
 21
147.3543410684
  0
LINE
  5
28E
100
AcDbEntity
  8
ASSY_MEM
100
AcDbLine
 62
7
  6
CONTINUOUS
 10
1086.8563478911
 20
147.3543410684
 11
1092.0563478911
 21
147.3543410684
  0
LINE
  5
28F
100
AcDbEntity
  8
ASSY_MEM
100
AcDbLine
 62
7
  6
CONTINUOUS
 10
1399.3563478911
 20
147.3543410684
 11
1404.5563478911
 21
147.3543410684
  0
LINE
  5
290
100
AcDbEntity
  8
ASSY_MEM
100
AcDbLine
 62
7
  6
CONTINUOUS
 10
-1244.2936521089
 20
160.6543410684
 11
-951.7936521089
 21
160.6543410684
  0
LINE
  5
291
100
AcDbEntity
  8
ASSY_MEM
100
AcDbLine
 62
7
  6
CONTINUOUS
 10
-931.7936521089
 20
160.6543410684
 11
-639.2936521089
 21
160.6543410684
  0
LINE
  5
292
100
AcDbEntity
  8
ASSY_MEM
100
AcDbLine
 62
7
  6
CONTINUOUS
 10
-619.2936521089
 20
160.6543410684
 11
-326.7936521089
 21
160.6543410684
  0
LINE
  5
293
100
AcDbEntity
  8
ASSY_MEM
100
AcDbLine
 62
7
  6
CONTINUOUS
 10
-306.7936521089
 20
160.6543410684
 11
-14.2936521089
 21
160.6543410684
  0
LINE
  5
294
100
AcDbEntity
  8
ASSY_MEM
100
AcDbLine
 62
7
  6
CONTINUOUS
 10
5.7063478911
 20
160.6543410684
 11
298.2063478911
 21
160.6543410684
  0
LINE
  5
295
100
AcDbEntity
  8
ASSY_MEM
100
AcDbLine
 62
7
  6
CONTINUOUS
 10
318.2063478911
 20
160.6543410684
 11
610.7063478911
 21
160.6543410684
  0
LINE
  5
296
100
AcDbEntity
  8
ASSY_MEM
100
AcDbLine
 62
7
  6
CONTINUOUS
 10
630.7063478911
 20
160.6543410684
 11
923.2063478911
 21
160.6543410684
  0
LINE
  5
297
100
AcDbEntity
  8
ASSY_MEM
100
AcDbLine
 62
7
  6
CONTINUOUS
 10
943.2063478911
 20
160.6543410684
 11
1235.7063478911
 21
160.6543410684
  0
LINE
  5
298
100
AcDbEntity
  8
ASSY_MEM
100
AcDbLine
 62
7
  6
CONTINUOUS
 10
1255.7063478911
 20
160.6543410684
 11
1548.2063478911
 21
160.6543410684
  0
LINE
  5
299
100
AcDbEntity
  8
ASSY_MEM
100
AcDbLine
 62
7
  6
CONTINUOUS
 10
1508.2063478911
 20
160.6765632906
 11
1295.7063478911
 21
160.6765632906
  0
LINE
  5
29A
100
AcDbEntity
  8
ASSY_MEM
100
AcDbLine
 62
7
  6
CONTINUOUS
 10
1195.7063478911
 20
160.6765632906
 11
983.2063478911
 21
160.6765632906
  0
LINE
  5
29B
100
AcDbEntity
  8
ASSY_MEM
100
AcDbLine
 62
7
  6
CONTINUOUS
 10
883.2063478911
 20
160.6765632906
 11
670.7063478911
 21
160.6765632906
  0
LINE
  5
29C
100
AcDbEntity
  8
ASSY_MEM
100
AcDbLine
 62
7
  6
CONTINUOUS
 10
570.7063478911
 20
160.6765632906
 11
358.2063478911
 21
160.6765632906
  0
LINE
  5
29D
100
AcDbEntity
  8
ASSY_MEM
100
AcDbLine
 62
7
  6
CONTINUOUS
 10
258.2063478911
 20
160.6765632906
 11
45.7063478911
 21
160.6765632906
  0
LINE
  5
29E
100
AcDbEntity
  8
ASSY_MEM
100
AcDbLine
 62
7
  6
CONTINUOUS
 10
-54.2936521089
 20
160.6765632906
 11
-266.7936521089
 21
160.6765632906
  0
LINE
  5
29F
100
AcDbEntity
  8
ASSY_MEM
100
AcDbLine
 62
7
  6
CONTINUOUS
 10
-366.7936521089
 20
160.6765632906
 11
-579.2936521089
 21
160.6765632906
  0
LINE
  5
2A0
100
AcDbEntity
  8
ASSY_MEM
100
AcDbLine
 62
7
  6
CONTINUOUS
 10
-679.2936521089
 20
160.6765632906
 11
-891.7936521089
 21
160.6765632906
  0
LINE
  5
2A1
100
AcDbEntity
  8
ASSY_MEM
100
AcDbLine
 62
7
  6
CONTINUOUS
 10
-991.7936521089
 20
160.6765632906
 11
-1204.2936521089
 21
160.6765632906
  0
LINE
  5
2A2
100
AcDbEntity
  8
ASSY_MEM
100
AcDbLine
 62
7
  6
CONTINUOUS
 10
308.2063478911
 20
606.2543410684
 11
308.2063478911
 21
438.4765632906
  0
LINE
  5
2A3
100
AcDbEntity
  8
ASSY_MEM
100
AcDbLine
 62
7
  6
CONTINUOUS
 10
308.2063478911
 20
378.4543410684
 11
308.2063478911
 21
210.6765632906
  0
LINE
  5
2A4
100
AcDbEntity
  8
ASSY_MEM
100
AcDbLine
 62
7
  6
CONTINUOUS
 10
308.2063478911
 20
150.6543410684
 11
308.2063478911
 21
-17.1234367094
  0
LINE
  5
2A5
100
AcDbEntity
  8
ASSY_MEM
100
AcDbLine
 62
7
  6
CONTINUOUS
 10
308.2063478911
 20
-244.9234367094
 11
308.2063478911
 21
-77.1456589316
  0
LINE
  5
2A6
100
AcDbEntity
  8
ASSY_MEM
100
AcDbLine
 62
7
  6
CONTINUOUS
 10
1404.5563478911
 20
369.9543410684
 11
1399.3563478911
 21
369.9543410684
  0
LINE
  5
2A7
100
AcDbEntity
  8
ASSY_MEM
100
AcDbLine
 62
7
  6
CONTINUOUS
 10
1092.0563478911
 20
369.9543410684
 11
1086.8563478911
 21
369.9543410684
  0
LINE
  5
2A8
100
AcDbEntity
  8
ASSY_MEM
100
AcDbLine
 62
7
  6
CONTINUOUS
 10
779.5563478911
 20
369.9543410684
 11
774.3563478911
 21
369.9543410684
  0
LINE
  5
2A9
100
AcDbEntity
  8
ASSY_MEM
100
AcDbLine
 62
7
  6
CONTINUOUS
 10
467.0563478911
 20
369.9543410684
 11
461.8563478911
 21
369.9543410684
  0
LINE
  5
2AA
100
AcDbEntity
  8
ASSY_MEM
100
AcDbLine
 62
7
  6
CONTINUOUS
 10
154.5563478911
 20
369.9543410684
 11
149.3563478911
 21
369.9543410684
  0
LINE
  5
2AB
100
AcDbEntity
  8
ASSY_MEM
100
AcDbLine
 62
7
  6
CONTINUOUS
 10
-157.9436521089
 20
369.9543410684
 11
-163.1436521089
 21
369.9543410684
  0
LINE
  5
2AC
100
AcDbEntity
  8
ASSY_MEM
100
AcDbLine
 62
7
  6
CONTINUOUS
 10
-470.4436521089
 20
369.9543410684
 11
-475.6436521089
 21
369.9543410684
  0
LINE
  5
2AD
100
AcDbEntity
  8
ASSY_MEM
100
AcDbLine
 62
7
  6
CONTINUOUS
 10
-782.9436521089
 20
369.9543410684
 11
-788.1436521089
 21
369.9543410684
  0
LINE
  5
2AE
100
AcDbEntity
  8
ASSY_MEM
100
AcDbLine
 62
7
  6
CONTINUOUS
 10
-1095.4436521089
 20
369.9543410684
 11
-1100.6436521089
 21
369.9543410684
  0
LINE
  5
2AF
100
AcDbEntity
  8
ASSY_MEM
100
AcDbLine
 62
7
  6
CONTINUOUS
 10
-1100.6436521089
 20
375.1543410684
 11
-1095.4436521089
 21
375.1543410684
  0
LINE
  5
2B0
100
AcDbEntity
  8
ASSY_MEM
100
AcDbLine
 62
7
  6
CONTINUOUS
 10
-788.1436521089
 20
375.1543410684
 11
-782.9436521089
 21
375.1543410684
  0
LINE
  5
2B1
100
AcDbEntity
  8
ASSY_MEM
100
AcDbLine
 62
7
  6
CONTINUOUS
 10
-475.6436521089
 20
375.1543410684
 11
-470.4436521089
 21
375.1543410684
  0
LINE
  5
2B2
100
AcDbEntity
  8
ASSY_MEM
100
AcDbLine
 62
7
  6
CONTINUOUS
 10
-163.1436521089
 20
375.1543410684
 11
-157.9436521089
 21
375.1543410684
  0
LINE
  5
2B3
100
AcDbEntity
  8
ASSY_MEM
100
AcDbLine
 62
7
  6
CONTINUOUS
 10
149.3563478911
 20
375.1543410684
 11
154.5563478911
 21
375.1543410684
  0
LINE
  5
2B4
100
AcDbEntity
  8
ASSY_MEM
100
AcDbLine
 62
7
  6
CONTINUOUS
 10
461.8563478911
 20
375.1543410684
 11
467.0563478911
 21
375.1543410684
  0
LINE
  5
2B5
100
AcDbEntity
  8
ASSY_MEM
100
AcDbLine
 62
7
  6
CONTINUOUS
 10
774.3563478911
 20
375.1543410684
 11
779.5563478911
 21
375.1543410684
  0
LINE
  5
2B6
100
AcDbEntity
  8
ASSY_MEM
100
AcDbLine
 62
7
  6
CONTINUOUS
 10
1086.8563478911
 20
375.1543410684
 11
1092.0563478911
 21
375.1543410684
  0
LINE
  5
2B7
100
AcDbEntity
  8
ASSY_MEM
100
AcDbLine
 62
7
  6
CONTINUOUS
 10
1399.3563478911
 20
375.1543410684
 11
1404.5563478911
 21
375.1543410684
  0
LINE
  5
2B8
100
AcDbEntity
  8
ASSY_MEM
100
AcDbLine
 62
7
  6
CONTINUOUS
 10
-1244.2936521089
 20
388.4543410684
 11
-951.7936521089
 21
388.4543410684
  0
LINE
  5
2B9
100
AcDbEntity
  8
ASSY_MEM
100
AcDbLine
 62
7
  6
CONTINUOUS
 10
-931.7936521089
 20
388.4543410684
 11
-639.2936521089
 21
388.4543410684
  0
LINE
  5
2BA
100
AcDbEntity
  8
ASSY_MEM
100
AcDbLine
 62
7
  6
CONTINUOUS
 10
-619.2936521089
 20
388.4543410684
 11
-326.7936521089
 21
388.4543410684
  0
LINE
  5
2BB
100
AcDbEntity
  8
ASSY_MEM
100
AcDbLine
 62
7
  6
CONTINUOUS
 10
-306.7936521089
 20
388.4543410684
 11
-14.2936521089
 21
388.4543410684
  0
LINE
  5
2BC
100
AcDbEntity
  8
ASSY_MEM
100
AcDbLine
 62
7
  6
CONTINUOUS
 10
5.7063478911
 20
388.4543410684
 11
298.2063478911
 21
388.4543410684
  0
LINE
  5
2BD
100
AcDbEntity
  8
ASSY_MEM
100
AcDbLine
 62
7
  6
CONTINUOUS
 10
318.2063478911
 20
388.4543410684
 11
610.7063478911
 21
388.4543410684
  0
LINE
  5
2BE
100
AcDbEntity
  8
ASSY_MEM
100
AcDbLine
 62
7
  6
CONTINUOUS
 10
630.7063478911
 20
388.4543410684
 11
923.2063478911
 21
388.4543410684
  0
LINE
  5
2BF
100
AcDbEntity
  8
ASSY_MEM
100
AcDbLine
 62
7
  6
CONTINUOUS
 10
943.2063478911
 20
388.4543410684
 11
1235.7063478911
 21
388.4543410684
  0
LINE
  5
2C0
100
AcDbEntity
  8
ASSY_MEM
100
AcDbLine
 62
7
  6
CONTINUOUS
 10
1255.7063478911
 20
388.4543410684
 11
1548.2063478911
 21
388.4543410684
  0
LINE
  5
2C1
100
AcDbEntity
  8
ASSY_MEM
100
AcDbLine
 62
7
  6
CONTINUOUS
 10
1508.2063478911
 20
388.4765632906
 11
1295.7063478911
 21
388.4765632906
  0
LINE
  5
2C2
100
AcDbEntity
  8
ASSY_MEM
100
AcDbLine
 62
7
  6
CONTINUOUS
 10
1195.7063478911
 20
388.4765632906
 11
983.2063478911
 21
388.4765632906
  0
LINE
  5
2C3
100
AcDbEntity
  8
ASSY_MEM
100
AcDbLine
 62
7
  6
CONTINUOUS
 10
883.2063478911
 20
388.4765632906
 11
670.7063478911
 21
388.4765632906
  0
LINE
  5
2C4
100
AcDbEntity
  8
ASSY_MEM
100
AcDbLine
 62
7
  6
CONTINUOUS
 10
570.7063478911
 20
388.4765632906
 11
358.2063478911
 21
388.4765632906
  0
LINE
  5
2C5
100
AcDbEntity
  8
ASSY_MEM
100
AcDbLine
 62
7
  6
CONTINUOUS
 10
258.2063478911
 20
388.4765632906
 11
45.7063478911
 21
388.4765632906
  0
LINE
  5
2C6
100
AcDbEntity
  8
ASSY_MEM
100
AcDbLine
 62
7
  6
CONTINUOUS
 10
-54.2936521089
 20
388.4765632906
 11
-266.7936521089
 21
388.4765632906
  0
LINE
  5
2C7
100
AcDbEntity
  8
ASSY_MEM
100
AcDbLine
 62
7
  6
CONTINUOUS
 10
-366.7936521089
 20
388.4765632906
 11
-579.2936521089
 21
388.4765632906
  0
LINE
  5
2C8
100
AcDbEntity
  8
ASSY_MEM
100
AcDbLine
 62
7
  6
CONTINUOUS
 10
-679.2936521089
 20
388.4765632906
 11
-891.7936521089
 21
388.4765632906
  0
LINE
  5
2C9
100
AcDbEntity
  8
ASSY_MEM
100
AcDbLine
 62
7
  6
CONTINUOUS
 10
-991.7936521089
 20
388.4765632906
 11
-1204.2936521089
 21
388.4765632906
  0
LINE
  5
2CA
100
AcDbEntity
  8
ASSY_MEM
100
AcDbLine
 62
7
  6
CONTINUOUS
 10
461.8563478911
 20
-85.6456589316
 11
461.8563478911
 21
-80.4456589316
  0
LINE
  5
2CB
100
AcDbEntity
  8
ASSY_MEM
100
AcDbLine
 62
7
  6
CONTINUOUS
 10
461.8563478911
 20
142.1543410684
 11
461.8563478911
 21
147.3543410684
  0
LINE
  5
2CC
100
AcDbEntity
  8
ASSY_MEM
100
AcDbLine
 62
7
  6
CONTINUOUS
 10
461.8563478911
 20
369.9543410684
 11
461.8563478911
 21
375.1543410684
  0
LINE
  5
2CD
100
AcDbEntity
  8
ASSY_MEM
100
AcDbLine
 62
7
  6
CONTINUOUS
 10
461.8563478911
 20
597.7543410684
 11
461.8563478911
 21
602.9543410684
  0
LINE
  5
2CE
100
AcDbEntity
  8
ASSY_MEM
100
AcDbLine
 62
7
  6
CONTINUOUS
 10
467.0563478911
 20
602.9543410684
 11
467.0563478911
 21
597.7543410684
  0
LINE
  5
2CF
100
AcDbEntity
  8
ASSY_MEM
100
AcDbLine
 62
7
  6
CONTINUOUS
 10
467.0563478911
 20
375.1543410684
 11
467.0563478911
 21
369.9543410684
  0
LINE
  5
2D0
100
AcDbEntity
  8
ASSY_MEM
100
AcDbLine
 62
7
  6
CONTINUOUS
 10
467.0563478911
 20
147.3543410684
 11
467.0563478911
 21
142.1543410684
  0
LINE
  5
2D1
100
AcDbEntity
  8
ASSY_MEM
100
AcDbLine
 62
7
  6
CONTINUOUS
 10
467.0563478911
 20
-80.4456589316
 11
467.0563478911
 21
-85.6456589316
  0
LINE
  5
2D2
100
AcDbEntity
  8
ASSY_MEM
100
AcDbLine
 62
7
  6
CONTINUOUS
 10
620.7063478911
 20
606.2543410684
 11
620.7063478911
 21
438.4765632906
  0
LINE
  5
2D3
100
AcDbEntity
  8
ASSY_MEM
100
AcDbLine
 62
7
  6
CONTINUOUS
 10
620.7063478911
 20
378.4543410684
 11
620.7063478911
 21
210.6765632906
  0
LINE
  5
2D4
100
AcDbEntity
  8
ASSY_MEM
100
AcDbLine
 62
7
  6
CONTINUOUS
 10
620.7063478911
 20
150.6543410684
 11
620.7063478911
 21
-17.1234367094
  0
LINE
  5
2D5
100
AcDbEntity
  8
ASSY_MEM
100
AcDbLine
 62
7
  6
CONTINUOUS
 10
620.7063478911
 20
-244.9234367094
 11
620.7063478911
 21
-77.1456589316
  0
LINE
  5
2D6
100
AcDbEntity
  8
ASSY_MEM
100
AcDbLine
 62
7
  6
CONTINUOUS
 10
1404.5563478911
 20
597.7543410684
 11
1399.3563478911
 21
597.7543410684
  0
LINE
  5
2D7
100
AcDbEntity
  8
ASSY_MEM
100
AcDbLine
 62
7
  6
CONTINUOUS
 10
1092.0563478911
 20
597.7543410684
 11
1086.8563478911
 21
597.7543410684
  0
LINE
  5
2D8
100
AcDbEntity
  8
ASSY_MEM
100
AcDbLine
 62
7
  6
CONTINUOUS
 10
779.5563478911
 20
597.7543410684
 11
774.3563478911
 21
597.7543410684
  0
LINE
  5
2D9
100
AcDbEntity
  8
ASSY_MEM
100
AcDbLine
 62
7
  6
CONTINUOUS
 10
467.0563478911
 20
597.7543410684
 11
461.8563478911
 21
597.7543410684
  0
LINE
  5
2DA
100
AcDbEntity
  8
ASSY_MEM
100
AcDbLine
 62
7
  6
CONTINUOUS
 10
154.5563478911
 20
597.7543410684
 11
149.3563478911
 21
597.7543410684
  0
LINE
  5
2DB
100
AcDbEntity
  8
ASSY_MEM
100
AcDbLine
 62
7
  6
CONTINUOUS
 10
-157.9436521089
 20
597.7543410684
 11
-163.1436521089
 21
597.7543410684
  0
LINE
  5
2DC
100
AcDbEntity
  8
ASSY_MEM
100
AcDbLine
 62
7
  6
CONTINUOUS
 10
-470.4436521089
 20
597.7543410684
 11
-475.6436521089
 21
597.7543410684
  0
LINE
  5
2DD
100
AcDbEntity
  8
ASSY_MEM
100
AcDbLine
 62
7
  6
CONTINUOUS
 10
-782.9436521089
 20
597.7543410684
 11
-788.1436521089
 21
597.7543410684
  0
LINE
  5
2DE
100
AcDbEntity
  8
ASSY_MEM
100
AcDbLine
 62
7
  6
CONTINUOUS
 10
-1095.4436521089
 20
597.7543410684
 11
-1100.6436521089
 21
597.7543410684
  0
LINE
  5
2DF
100
AcDbEntity
  8
ASSY_MEM
100
AcDbLine
 62
7
  6
CONTINUOUS
 10
-1100.6436521089
 20
602.9543410684
 11
-1095.4436521089
 21
602.9543410684
  0
LINE
  5
2E0
100
AcDbEntity
  8
ASSY_MEM
100
AcDbLine
 62
7
  6
CONTINUOUS
 10
-788.1436521089
 20
602.9543410684
 11
-782.9436521089
 21
602.9543410684
  0
LINE
  5
2E1
100
AcDbEntity
  8
ASSY_MEM
100
AcDbLine
 62
7
  6
CONTINUOUS
 10
-475.6436521089
 20
602.9543410684
 11
-470.4436521089
 21
602.9543410684
  0
LINE
  5
2E2
100
AcDbEntity
  8
ASSY_MEM
100
AcDbLine
 62
7
  6
CONTINUOUS
 10
-163.1436521089
 20
602.9543410684
 11
-157.9436521089
 21
602.9543410684
  0
LINE
  5
2E3
100
AcDbEntity
  8
ASSY_MEM
100
AcDbLine
 62
7
  6
CONTINUOUS
 10
149.3563478911
 20
602.9543410684
 11
154.5563478911
 21
602.9543410684
  0
LINE
  5
2E4
100
AcDbEntity
  8
ASSY_MEM
100
AcDbLine
 62
7
  6
CONTINUOUS
 10
461.8563478911
 20
602.9543410684
 11
467.0563478911
 21
602.9543410684
  0
LINE
  5
2E5
100
AcDbEntity
  8
ASSY_MEM
100
AcDbLine
 62
7
  6
CONTINUOUS
 10
774.3563478911
 20
602.9543410684
 11
779.5563478911
 21
602.9543410684
  0
LINE
  5
2E6
100
AcDbEntity
  8
ASSY_MEM
100
AcDbLine
 62
7
  6
CONTINUOUS
 10
1086.8563478911
 20
602.9543410684
 11
1092.0563478911
 21
602.9543410684
  0
LINE
  5
2E7
100
AcDbEntity
  8
ASSY_MEM
100
AcDbLine
 62
7
  6
CONTINUOUS
 10
1399.3563478911
 20
602.9543410684
 11
1404.5563478911
 21
602.9543410684
  0
LINE
  5
2E8
100
AcDbEntity
  8
ASSY_MEM
100
AcDbLine
 62
7
  6
CONTINUOUS
 10
-1244.2936521089
 20
616.2543410684
 11
-951.7936521089
 21
616.2543410684
  0
LINE
  5
2E9
100
AcDbEntity
  8
ASSY_MEM
100
AcDbLine
 62
7
  6
CONTINUOUS
 10
-931.7936521089
 20
616.2543410684
 11
-639.2936521089
 21
616.2543410684
  0
LINE
  5
2EA
100
AcDbEntity
  8
ASSY_MEM
100
AcDbLine
 62
7
  6
CONTINUOUS
 10
-619.2936521089
 20
616.2543410684
 11
-326.7936521089
 21
616.2543410684
  0
LINE
  5
2EB
100
AcDbEntity
  8
ASSY_MEM
100
AcDbLine
 62
7
  6
CONTINUOUS
 10
-306.7936521089
 20
616.2543410684
 11
-14.2936521089
 21
616.2543410684
  0
LINE
  5
2EC
100
AcDbEntity
  8
ASSY_MEM
100
AcDbLine
 62
7
  6
CONTINUOUS
 10
5.7063478911
 20
616.2543410684
 11
298.2063478911
 21
616.2543410684
  0
LINE
  5
2ED
100
AcDbEntity
  8
ASSY_MEM
100
AcDbLine
 62
7
  6
CONTINUOUS
 10
318.2063478911
 20
616.2543410684
 11
610.7063478911
 21
616.2543410684
  0
LINE
  5
2EE
100
AcDbEntity
  8
ASSY_MEM
100
AcDbLine
 62
7
  6
CONTINUOUS
 10
630.7063478911
 20
616.2543410684
 11
923.2063478911
 21
616.2543410684
  0
LINE
  5
2EF
100
AcDbEntity
  8
ASSY_MEM
100
AcDbLine
 62
7
  6
CONTINUOUS
 10
943.2063478911
 20
616.2543410684
 11
1235.7063478911
 21
616.2543410684
  0
LINE
  5
2F0
100
AcDbEntity
  8
ASSY_MEM
100
AcDbLine
 62
7
  6
CONTINUOUS
 10
1255.7063478911
 20
616.2543410684
 11
1548.2063478911
 21
616.2543410684
  0
LINE
  5
2F1
100
AcDbEntity
  8
ASSY_MEM
100
AcDbLine
 62
7
  6
CONTINUOUS
 10
774.3563478911
 20
-85.6456589316
 11
774.3563478911
 21
-80.4456589316
  0
LINE
  5
2F2
100
AcDbEntity
  8
ASSY_MEM
100
AcDbLine
 62
7
  6
CONTINUOUS
 10
774.3563478911
 20
142.1543410684
 11
774.3563478911
 21
147.3543410684
  0
LINE
  5
2F3
100
AcDbEntity
  8
ASSY_MEM
100
AcDbLine
 62
7
  6
CONTINUOUS
 10
774.3563478911
 20
369.9543410684
 11
774.3563478911
 21
375.1543410684
  0
LINE
  5
2F4
100
AcDbEntity
  8
ASSY_MEM
100
AcDbLine
 62
7
  6
CONTINUOUS
 10
774.3563478911
 20
597.7543410684
 11
774.3563478911
 21
602.9543410684
  0
LINE
  5
2F5
100
AcDbEntity
  8
ASSY_MEM
100
AcDbLine
 62
7
  6
CONTINUOUS
 10
779.5563478911
 20
602.9543410684
 11
779.5563478911
 21
597.7543410684
  0
LINE
  5
2F6
100
AcDbEntity
  8
ASSY_MEM
100
AcDbLine
 62
7
  6
CONTINUOUS
 10
779.5563478911
 20
375.1543410684
 11
779.5563478911
 21
369.9543410684
  0
LINE
  5
2F7
100
AcDbEntity
  8
ASSY_MEM
100
AcDbLine
 62
7
  6
CONTINUOUS
 10
779.5563478911
 20
147.3543410684
 11
779.5563478911
 21
142.1543410684
  0
LINE
  5
2F8
100
AcDbEntity
  8
ASSY_MEM
100
AcDbLine
 62
7
  6
CONTINUOUS
 10
779.5563478911
 20
-80.4456589316
 11
779.5563478911
 21
-85.6456589316
  0
LINE
  5
2F9
100
AcDbEntity
  8
ASSY_MEM
100
AcDbLine
 62
7
  6
CONTINUOUS
 10
933.2063478911
 20
606.2543410684
 11
933.2063478911
 21
438.4765632906
  0
LINE
  5
2FA
100
AcDbEntity
  8
ASSY_MEM
100
AcDbLine
 62
7
  6
CONTINUOUS
 10
933.2063478911
 20
378.4543410684
 11
933.2063478911
 21
210.6765632906
  0
LINE
  5
2FB
100
AcDbEntity
  8
ASSY_MEM
100
AcDbLine
 62
7
  6
CONTINUOUS
 10
933.2063478911
 20
150.6543410684
 11
933.2063478911
 21
-17.1234367094
  0
LINE
  5
2FC
100
AcDbEntity
  8
ASSY_MEM
100
AcDbLine
 62
7
  6
CONTINUOUS
 10
933.2063478911
 20
-244.9234367094
 11
933.2063478911
 21
-77.1456589316
  0
LINE
  5
2FD
100
AcDbEntity
  8
ASSY_MEM
100
AcDbLine
 62
7
  6
CONTINUOUS
 10
1086.8563478911
 20
-85.6456589316
 11
1086.8563478911
 21
-80.4456589316
  0
LINE
  5
2FE
100
AcDbEntity
  8
ASSY_MEM
100
AcDbLine
 62
7
  6
CONTINUOUS
 10
1086.8563478911
 20
142.1543410684
 11
1086.8563478911
 21
147.3543410684
  0
LINE
  5
2FF
100
AcDbEntity
  8
ASSY_MEM
100
AcDbLine
 62
7
  6
CONTINUOUS
 10
1086.8563478911
 20
369.9543410684
 11
1086.8563478911
 21
375.1543410684
  0
LINE
  5
300
100
AcDbEntity
  8
ASSY_MEM
100
AcDbLine
 62
7
  6
CONTINUOUS
 10
1086.8563478911
 20
597.7543410684
 11
1086.8563478911
 21
602.9543410684
  0
LINE
  5
301
100
AcDbEntity
  8
ASSY_MEM
100
AcDbLine
 62
7
  6
CONTINUOUS
 10
1092.0563478911
 20
602.9543410684
 11
1092.0563478911
 21
597.7543410684
  0
LINE
  5
302
100
AcDbEntity
  8
ASSY_MEM
100
AcDbLine
 62
7
  6
CONTINUOUS
 10
1092.0563478911
 20
375.1543410684
 11
1092.0563478911
 21
369.9543410684
  0
LINE
  5
303
100
AcDbEntity
  8
ASSY_MEM
100
AcDbLine
 62
7
  6
CONTINUOUS
 10
1092.0563478911
 20
147.3543410684
 11
1092.0563478911
 21
142.1543410684
  0
LINE
  5
304
100
AcDbEntity
  8
ASSY_MEM
100
AcDbLine
 62
7
  6
CONTINUOUS
 10
1092.0563478911
 20
-80.4456589316
 11
1092.0563478911
 21
-85.6456589316
  0
LINE
  5
305
100
AcDbEntity
  8
ASSY_MEM
100
AcDbLine
 62
7
  6
CONTINUOUS
 10
1245.7063478911
 20
606.2543410684
 11
1245.7063478911
 21
438.4765632906
  0
LINE
  5
306
100
AcDbEntity
  8
ASSY_MEM
100
AcDbLine
 62
7
  6
CONTINUOUS
 10
1245.7063478911
 20
378.4543410684
 11
1245.7063478911
 21
210.6765632906
  0
LINE
  5
307
100
AcDbEntity
  8
ASSY_MEM
100
AcDbLine
 62
7
  6
CONTINUOUS
 10
1245.7063478911
 20
150.6543410684
 11
1245.7063478911
 21
-17.1234367094
  0
LINE
  5
308
100
AcDbEntity
  8
ASSY_MEM
100
AcDbLine
 62
7
  6
CONTINUOUS
 10
1245.7063478911
 20
-244.9234367094
 11
1245.7063478911
 21
-77.1456589316
  0
LINE
  5
309
100
AcDbEntity
  8
ASSY_MEM
100
AcDbLine
 62
7
  6
CONTINUOUS
 10
1399.3563478911
 20
-85.6456589316
 11
1399.3563478911
 21
-80.4456589316
  0
LINE
  5
30A
100
AcDbEntity
  8
ASSY_MEM
100
AcDbLine
 62
7
  6
CONTINUOUS
 10
1399.3563478911
 20
142.1543410684
 11
1399.3563478911
 21
147.3543410684
  0
LINE
  5
30B
100
AcDbEntity
  8
ASSY_MEM
100
AcDbLine
 62
7
  6
CONTINUOUS
 10
1399.3563478911
 20
369.9543410684
 11
1399.3563478911
 21
375.1543410684
  0
LINE
  5
30C
100
AcDbEntity
  8
ASSY_MEM
100
AcDbLine
 62
7
  6
CONTINUOUS
 10
1399.3563478911
 20
597.7543410684
 11
1399.3563478911
 21
602.9543410684
  0
LINE
  5
30D
100
AcDbEntity
  8
ASSY_MEM
100
AcDbLine
 62
7
  6
CONTINUOUS
 10
1404.5563478911
 20
602.9543410684
 11
1404.5563478911
 21
597.7543410684
  0
LINE
  5
30E
100
AcDbEntity
  8
ASSY_MEM
100
AcDbLine
 62
7
  6
CONTINUOUS
 10
1404.5563478911
 20
375.1543410684
 11
1404.5563478911
 21
369.9543410684
  0
LINE
  5
30F
100
AcDbEntity
  8
ASSY_MEM
100
AcDbLine
 62
7
  6
CONTINUOUS
 10
1404.5563478911
 20
147.3543410684
 11
1404.5563478911
 21
142.1543410684
  0
LINE
  5
310
100
AcDbEntity
  8
ASSY_MEM
100
AcDbLine
 62
7
  6
CONTINUOUS
 10
1404.5563478911
 20
-80.4456589316
 11
1404.5563478911
 21
-85.6456589316
  0
LINE
  5
311
100
AcDbEntity
  8
ASSY_MEM
100
AcDbLine
 62
7
  6
CONTINUOUS
 10
1558.2063478911
 20
606.2543410684
 11
1558.2063478911
 21
438.4765632906
  0
LINE
  5
312
100
AcDbEntity
  8
ASSY_MEM
100
AcDbLine
 62
7
  6
CONTINUOUS
 10
1558.2063478911
 20
378.4543410684
 11
1558.2063478911
 21
210.6765632906
  0
LINE
  5
313
100
AcDbEntity
  8
ASSY_MEM
100
AcDbLine
 62
7
  6
CONTINUOUS
 10
1558.2063478911
 20
150.6543410684
 11
1558.2063478911
 21
-17.1234367094
  0
LINE
  5
314
100
AcDbEntity
  8
ASSY_MEM
100
AcDbLine
 62
7
  6
CONTINUOUS
 10
1558.2063478911
 20
-77.1456589316
 11
1558.2063478911
 21
-244.9234367094
  0
ARC
  5
315
100
AcDbEntity
  8
ASSY_MEM
100
AcDbCircle
 62
7
  6
CONTINUOUS
 10
-991.7936521089
 20
-244.9234367094
 40
50.0
100
AcDbArc
 50
270.0
 51
360.0
  0
ARC
  5
316
100
AcDbEntity
  8
ASSY_MEM
100
AcDbCircle
 62
7
  6
CONTINUOUS
 10
-1204.2936521089
 20
-244.9234367094
 40
50.0
100
AcDbArc
 50
180.0
 51
270.0
  0
ARC
  5
317
100
AcDbEntity
  8
ASSY_MEM
100
AcDbCircle
 62
7
  6
CONTINUOUS
 10
-679.2936521089
 20
-244.9234367094
 40
50.0
100
AcDbArc
 50
270.0
 51
360.0
  0
ARC
  5
318
100
AcDbEntity
  8
ASSY_MEM
100
AcDbCircle
 62
7
  6
CONTINUOUS
 10
-891.7936521089
 20
-244.9234367094
 40
50.0
100
AcDbArc
 50
180.0
 51
270.0
  0
ARC
  5
319
100
AcDbEntity
  8
ASSY_MEM
100
AcDbCircle
 62
7
  6
CONTINUOUS
 10
-951.7936521089
 20
-77.1456589316
 40
10.0
100
AcDbArc
 50
0.0
 51
90.0
  0
ARC
  5
31A
100
AcDbEntity
  8
ASSY_MEM
100
AcDbCircle
 62
7
  6
CONTINUOUS
 10
-1244.2936521089
 20
-77.1456589316
 40
10.0
100
AcDbArc
 50
90.0
 51
180.0
  0
ARC
  5
31B
100
AcDbEntity
  8
ASSY_MEM
100
AcDbCircle
 62
7
  6
CONTINUOUS
 10
-619.2936521089
 20
-77.1456589316
 40
10.0
100
AcDbArc
 50
90.0
 51
180.0
  0
ARC
  5
31C
100
AcDbEntity
  8
ASSY_MEM
100
AcDbCircle
 62
7
  6
CONTINUOUS
 10
-639.2936521089
 20
-77.1456589316
 40
10.0
100
AcDbArc
 50
0.0
 51
90.0
  0
ARC
  5
31D
100
AcDbEntity
  8
ASSY_MEM
100
AcDbCircle
 62
7
  6
CONTINUOUS
 10
-931.7936521089
 20
-77.1456589316
 40
10.0
100
AcDbArc
 50
90.0
 51
180.0
  0
CIRCLE
  5
31E
100
AcDbEntity
  8
ASSY_MEM
100
AcDbCircle
 62
7
  6
CONTINUOUS
 10
-950.7936521089
 20
-77.1456589316
 40
3.0
  0
CIRCLE
  5
31F
100
AcDbEntity
  8
ASSY_MEM
100
AcDbCircle
 62
7
  6
CONTINUOUS
 10
-1245.2936521089
 20
-77.1456589316
 40
3.0
  0
CIRCLE
  5
320
100
AcDbEntity
  8
ASSY_MEM
100
AcDbCircle
 62
7
  6
CONTINUOUS
 10
-620.2936521089
 20
-77.1456589316
 40
3.0
  0
CIRCLE
  5
321
100
AcDbEntity
  8
ASSY_MEM
100
AcDbCircle
 62
7
  6
CONTINUOUS
 10
-638.2936521089
 20
-77.1456589316
 40
3.0
  0
CIRCLE
  5
322
100
AcDbEntity
  8
ASSY_MEM
100
AcDbCircle
 62
7
  6
CONTINUOUS
 10
-932.7936521089
 20
-77.1456589316
 40
3.0
  0
ARC
  5
323
100
AcDbEntity
  8
ASSY_MEM
100
AcDbCircle
 62
7
  6
CONTINUOUS
 10
-991.7936521089
 20
-17.1234367094
 40
50.0
100
AcDbArc
 50
270.0
 51
360.0
  0
ARC
  5
324
100
AcDbEntity
  8
ASSY_MEM
100
AcDbCircle
 62
7
  6
CONTINUOUS
 10
-1204.2936521089
 20
-17.1234367094
 40
50.0
100
AcDbArc
 50
180.0
 51
270.0
  0
ARC
  5
325
100
AcDbEntity
  8
ASSY_MEM
100
AcDbCircle
 62
7
  6
CONTINUOUS
 10
-679.2936521089
 20
-17.1234367094
 40
50.0
100
AcDbArc
 50
270.0
 51
360.0
  0
ARC
  5
326
100
AcDbEntity
  8
ASSY_MEM
100
AcDbCircle
 62
7
  6
CONTINUOUS
 10
-891.7936521089
 20
-17.1234367094
 40
50.0
100
AcDbArc
 50
180.0
 51
270.0
  0
ARC
  5
327
100
AcDbEntity
  8
ASSY_MEM
100
AcDbCircle
 62
7
  6
CONTINUOUS
 10
-951.7936521089
 20
150.6543410684
 40
10.0
100
AcDbArc
 50
0.0
 51
90.0
  0
ARC
  5
328
100
AcDbEntity
  8
ASSY_MEM
100
AcDbCircle
 62
7
  6
CONTINUOUS
 10
-1244.2936521089
 20
150.6543410684
 40
10.0
100
AcDbArc
 50
90.0
 51
180.0
  0
ARC
  5
329
100
AcDbEntity
  8
ASSY_MEM
100
AcDbCircle
 62
7
  6
CONTINUOUS
 10
-639.2936521089
 20
150.6543410684
 40
10.0
100
AcDbArc
 50
0.0
 51
90.0
  0
ARC
  5
32A
100
AcDbEntity
  8
ASSY_MEM
100
AcDbCircle
 62
7
  6
CONTINUOUS
 10
-931.7936521089
 20
150.6543410684
 40
10.0
100
AcDbArc
 50
90.0
 51
180.0
  0
ARC
  5
32B
100
AcDbEntity
  8
ASSY_MEM
100
AcDbCircle
 62
7
  6
CONTINUOUS
 10
-619.2936521089
 20
150.6543410684
 40
10.0
100
AcDbArc
 50
90.0
 51
180.0
  0
CIRCLE
  5
32C
100
AcDbEntity
  8
ASSY_MEM
100
AcDbCircle
 62
7
  6
CONTINUOUS
 10
-950.7936521089
 20
150.6543410684
 40
3.0
  0
CIRCLE
  5
32D
100
AcDbEntity
  8
ASSY_MEM
100
AcDbCircle
 62
7
  6
CONTINUOUS
 10
-1245.2936521089
 20
150.6543410684
 40
3.0
  0
CIRCLE
  5
32E
100
AcDbEntity
  8
ASSY_MEM
100
AcDbCircle
 62
7
  6
CONTINUOUS
 10
-638.2936521089
 20
150.6543410684
 40
3.0
  0
CIRCLE
  5
32F
100
AcDbEntity
  8
ASSY_MEM
100
AcDbCircle
 62
7
  6
CONTINUOUS
 10
-932.7936521089
 20
150.6543410684
 40
3.0
  0
CIRCLE
  5
330
100
AcDbEntity
  8
ASSY_MEM
100
AcDbCircle
 62
7
  6
CONTINUOUS
 10
-620.2936521089
 20
150.6543410684
 40
3.0
  0
ARC
  5
331
100
AcDbEntity
  8
ASSY_MEM
100
AcDbCircle
 62
7
  6
CONTINUOUS
 10
45.7063478911
 20
-244.9234367094
 40
50.0
100
AcDbArc
 50
180.0
 51
270.0
  0
ARC
  5
332
100
AcDbEntity
  8
ASSY_MEM
100
AcDbCircle
 62
7
  6
CONTINUOUS
 10
-54.2936521089
 20
-244.9234367094
 40
50.0
100
AcDbArc
 50
270.0
 51
360.0
  0
ARC
  5
333
100
AcDbEntity
  8
ASSY_MEM
100
AcDbCircle
 62
7
  6
CONTINUOUS
 10
-266.7936521089
 20
-244.9234367094
 40
50.0
100
AcDbArc
 50
180.0
 51
270.0
  0
ARC
  5
334
100
AcDbEntity
  8
ASSY_MEM
100
AcDbCircle
 62
7
  6
CONTINUOUS
 10
-366.7936521089
 20
-244.9234367094
 40
50.0
100
AcDbArc
 50
270.0
 51
360.0
  0
ARC
  5
335
100
AcDbEntity
  8
ASSY_MEM
100
AcDbCircle
 62
7
  6
CONTINUOUS
 10
-579.2936521089
 20
-244.9234367094
 40
50.0
100
AcDbArc
 50
180.0
 51
270.0
  0
ARC
  5
336
100
AcDbEntity
  8
ASSY_MEM
100
AcDbCircle
 62
7
  6
CONTINUOUS
 10
5.7063478911
 20
-77.1456589316
 40
10.0
100
AcDbArc
 50
90.0
 51
180.0
  0
ARC
  5
337
100
AcDbEntity
  8
ASSY_MEM
100
AcDbCircle
 62
7
  6
CONTINUOUS
 10
-14.2936521089
 20
-77.1456589316
 40
10.0
100
AcDbArc
 50
0.0
 51
90.0
  0
ARC
  5
338
100
AcDbEntity
  8
ASSY_MEM
100
AcDbCircle
 62
7
  6
CONTINUOUS
 10
-306.7936521089
 20
-77.1456589316
 40
10.0
100
AcDbArc
 50
90.0
 51
180.0
  0
ARC
  5
339
100
AcDbEntity
  8
ASSY_MEM
100
AcDbCircle
 62
7
  6
CONTINUOUS
 10
-326.7936521089
 20
-77.1456589316
 40
10.0
100
AcDbArc
 50
0.0
 51
90.0
  0
CIRCLE
  5
33A
100
AcDbEntity
  8
ASSY_MEM
100
AcDbCircle
 62
7
  6
CONTINUOUS
 10
4.7063478911
 20
-77.1456589316
 40
3.0
  0
CIRCLE
  5
33B
100
AcDbEntity
  8
ASSY_MEM
100
AcDbCircle
 62
7
  6
CONTINUOUS
 10
-13.2936521089
 20
-77.1456589316
 40
3.0
  0
CIRCLE
  5
33C
100
AcDbEntity
  8
ASSY_MEM
100
AcDbCircle
 62
7
  6
CONTINUOUS
 10
-307.7936521089
 20
-77.1456589316
 40
3.0
  0
CIRCLE
  5
33D
100
AcDbEntity
  8
ASSY_MEM
100
AcDbCircle
 62
7
  6
CONTINUOUS
 10
-325.7936521089
 20
-77.1456589316
 40
3.0
  0
ARC
  5
33E
100
AcDbEntity
  8
ASSY_MEM
100
AcDbCircle
 62
7
  6
CONTINUOUS
 10
-366.7936521089
 20
-17.1234367094
 40
50.0
100
AcDbArc
 50
270.0
 51
360.0
  0
ARC
  5
33F
100
AcDbEntity
  8
ASSY_MEM
100
AcDbCircle
 62
7
  6
CONTINUOUS
 10
-579.2936521089
 20
-17.1234367094
 40
50.0
100
AcDbArc
 50
180.0
 51
270.0
  0
ARC
  5
340
100
AcDbEntity
  8
ASSY_MEM
100
AcDbCircle
 62
7
  6
CONTINUOUS
 10
-54.2936521089
 20
-17.1234367094
 40
50.0
100
AcDbArc
 50
270.0
 51
360.0
  0
ARC
  5
341
100
AcDbEntity
  8
ASSY_MEM
100
AcDbCircle
 62
7
  6
CONTINUOUS
 10
-266.7936521089
 20
-17.1234367094
 40
50.0
100
AcDbArc
 50
180.0
 51
270.0
  0
ARC
  5
342
100
AcDbEntity
  8
ASSY_MEM
100
AcDbCircle
 62
7
  6
CONTINUOUS
 10
45.7063478911
 20
-17.1234367094
 40
50.0
100
AcDbArc
 50
180.0
 51
270.0
  0
ARC
  5
343
100
AcDbEntity
  8
ASSY_MEM
100
AcDbCircle
 62
7
  6
CONTINUOUS
 10
-326.7936521089
 20
150.6543410684
 40
10.0
100
AcDbArc
 50
0.0
 51
90.0
  0
ARC
  5
344
100
AcDbEntity
  8
ASSY_MEM
100
AcDbCircle
 62
7
  6
CONTINUOUS
 10
-14.2936521089
 20
150.6543410684
 40
10.0
100
AcDbArc
 50
0.0
 51
90.0
  0
ARC
  5
345
100
AcDbEntity
  8
ASSY_MEM
100
AcDbCircle
 62
7
  6
CONTINUOUS
 10
-306.7936521089
 20
150.6543410684
 40
10.0
100
AcDbArc
 50
90.0
 51
180.0
  0
ARC
  5
346
100
AcDbEntity
  8
ASSY_MEM
100
AcDbCircle
 62
7
  6
CONTINUOUS
 10
5.7063478911
 20
150.6543410684
 40
10.0
100
AcDbArc
 50
90.0
 51
180.0
  0
CIRCLE
  5
347
100
AcDbEntity
  8
ASSY_MEM
100
AcDbCircle
 62
7
  6
CONTINUOUS
 10
-325.7936521089
 20
150.6543410684
 40
3.0
  0
CIRCLE
  5
348
100
AcDbEntity
  8
ASSY_MEM
100
AcDbCircle
 62
7
  6
CONTINUOUS
 10
-13.2936521089
 20
150.6543410684
 40
3.0
  0
CIRCLE
  5
349
100
AcDbEntity
  8
ASSY_MEM
100
AcDbCircle
 62
7
  6
CONTINUOUS
 10
-307.7936521089
 20
150.6543410684
 40
3.0
  0
CIRCLE
  5
34A
100
AcDbEntity
  8
ASSY_MEM
100
AcDbCircle
 62
7
  6
CONTINUOUS
 10
4.7063478911
 20
150.6543410684
 40
3.0
  0
ARC
  5
34B
100
AcDbEntity
  8
ASSY_MEM
100
AcDbCircle
 62
7
  6
CONTINUOUS
 10
-991.7936521089
 20
210.6765632906
 40
50.0
100
AcDbArc
 50
270.0
 51
360.0
  0
ARC
  5
34C
100
AcDbEntity
  8
ASSY_MEM
100
AcDbCircle
 62
7
  6
CONTINUOUS
 10
-1204.2936521089
 20
210.6765632906
 40
50.0
100
AcDbArc
 50
180.0
 51
270.0
  0
ARC
  5
34D
100
AcDbEntity
  8
ASSY_MEM
100
AcDbCircle
 62
7
  6
CONTINUOUS
 10
-679.2936521089
 20
210.6765632906
 40
50.0
100
AcDbArc
 50
270.0
 51
360.0
  0
ARC
  5
34E
100
AcDbEntity
  8
ASSY_MEM
100
AcDbCircle
 62
7
  6
CONTINUOUS
 10
-891.7936521089
 20
210.6765632906
 40
50.0
100
AcDbArc
 50
180.0
 51
270.0
  0
ARC
  5
34F
100
AcDbEntity
  8
ASSY_MEM
100
AcDbCircle
 62
7
  6
CONTINUOUS
 10
-951.7936521089
 20
378.4543410684
 40
10.0
100
AcDbArc
 50
0.0
 51
90.0
  0
ARC
  5
350
100
AcDbEntity
  8
ASSY_MEM
100
AcDbCircle
 62
7
  6
CONTINUOUS
 10
-1244.2936521089
 20
378.4543410684
 40
10.0
100
AcDbArc
 50
90.0
 51
180.0
  0
ARC
  5
351
100
AcDbEntity
  8
ASSY_MEM
100
AcDbCircle
 62
7
  6
CONTINUOUS
 10
-639.2936521089
 20
378.4543410684
 40
10.0
100
AcDbArc
 50
0.0
 51
90.0
  0
ARC
  5
352
100
AcDbEntity
  8
ASSY_MEM
100
AcDbCircle
 62
7
  6
CONTINUOUS
 10
-931.7936521089
 20
378.4543410684
 40
10.0
100
AcDbArc
 50
90.0
 51
180.0
  0
ARC
  5
353
100
AcDbEntity
  8
ASSY_MEM
100
AcDbCircle
 62
7
  6
CONTINUOUS
 10
-619.2936521089
 20
378.4543410684
 40
10.0
100
AcDbArc
 50
90.0
 51
180.0
  0
CIRCLE
  5
354
100
AcDbEntity
  8
ASSY_MEM
100
AcDbCircle
 62
7
  6
CONTINUOUS
 10
-950.7936521089
 20
378.4543410684
 40
3.0
  0
CIRCLE
  5
355
100
AcDbEntity
  8
ASSY_MEM
100
AcDbCircle
 62
7
  6
CONTINUOUS
 10
-1245.2936521089
 20
378.4543410684
 40
3.0
  0
CIRCLE
  5
356
100
AcDbEntity
  8
ASSY_MEM
100
AcDbCircle
 62
7
  6
CONTINUOUS
 10
-638.2936521089
 20
378.4543410684
 40
3.0
  0
CIRCLE
  5
357
100
AcDbEntity
  8
ASSY_MEM
100
AcDbCircle
 62
7
  6
CONTINUOUS
 10
-932.7936521089
 20
378.4543410684
 40
3.0
  0
CIRCLE
  5
358
100
AcDbEntity
  8
ASSY_MEM
100
AcDbCircle
 62
7
  6
CONTINUOUS
 10
-620.2936521089
 20
378.4543410684
 40
3.0
  0
ARC
  5
359
100
AcDbEntity
  8
ASSY_MEM
100
AcDbCircle
 62
7
  6
CONTINUOUS
 10
-679.2936521089
 20
438.4765632906
 40
50.0
100
AcDbArc
 50
270.0
 51
360.0
  0
ARC
  5
35A
100
AcDbEntity
  8
ASSY_MEM
100
AcDbCircle
 62
7
  6
CONTINUOUS
 10
-891.7936521089
 20
438.4765632906
 40
50.0
100
AcDbArc
 50
180.0
 51
270.0
  0
ARC
  5
35B
100
AcDbEntity
  8
ASSY_MEM
100
AcDbCircle
 62
7
  6
CONTINUOUS
 10
-991.7936521089
 20
438.4765632906
 40
50.0
100
AcDbArc
 50
270.0
 51
360.0
  0
ARC
  5
35C
100
AcDbEntity
  8
ASSY_MEM
100
AcDbCircle
 62
7
  6
CONTINUOUS
 10
-1204.2936521089
 20
438.4765632906
 40
50.0
100
AcDbArc
 50
180.0
 51
270.0
  0
ARC
  5
35D
100
AcDbEntity
  8
ASSY_MEM
100
AcDbCircle
 62
7
  6
CONTINUOUS
 10
-619.2936521089
 20
606.2543410684
 40
10.0
100
AcDbArc
 50
90.0
 51
180.0
  0
ARC
  5
35E
100
AcDbEntity
  8
ASSY_MEM
100
AcDbCircle
 62
7
  6
CONTINUOUS
 10
-639.2936521089
 20
606.2543410684
 40
10.0
100
AcDbArc
 50
0.0
 51
90.0
  0
ARC
  5
35F
100
AcDbEntity
  8
ASSY_MEM
100
AcDbCircle
 62
7
  6
CONTINUOUS
 10
-931.7936521089
 20
606.2543410684
 40
10.0
100
AcDbArc
 50
90.0
 51
180.0
  0
ARC
  5
360
100
AcDbEntity
  8
ASSY_MEM
100
AcDbCircle
 62
7
  6
CONTINUOUS
 10
-951.7936521089
 20
606.2543410684
 40
10.0
100
AcDbArc
 50
0.0
 51
90.0
  0
ARC
  5
361
100
AcDbEntity
  8
ASSY_MEM
100
AcDbCircle
 62
7
  6
CONTINUOUS
 10
-1244.2936521089
 20
606.2543410684
 40
10.0
100
AcDbArc
 50
90.0
 51
180.0
  0
CIRCLE
  5
362
100
AcDbEntity
  8
ASSY_MEM
100
AcDbCircle
 62
7
  6
CONTINUOUS
 10
-620.2936521089
 20
606.2543410684
 40
3.0
  0
CIRCLE
  5
363
100
AcDbEntity
  8
ASSY_MEM
100
AcDbCircle
 62
7
  6
CONTINUOUS
 10
-638.2936521089
 20
606.2543410684
 40
3.0
  0
CIRCLE
  5
364
100
AcDbEntity
  8
ASSY_MEM
100
AcDbCircle
 62
7
  6
CONTINUOUS
 10
-932.7936521089
 20
606.2543410684
 40
3.0
  0
CIRCLE
  5
365
100
AcDbEntity
  8
ASSY_MEM
100
AcDbCircle
 62
7
  6
CONTINUOUS
 10
-950.7936521089
 20
606.2543410684
 40
3.0
  0
CIRCLE
  5
366
100
AcDbEntity
  8
ASSY_MEM
100
AcDbCircle
 62
7
  6
CONTINUOUS
 10
-1245.2936521089
 20
606.2543410684
 40
3.0
  0
ARC
  5
367
100
AcDbEntity
  8
ASSY_MEM
100
AcDbCircle
 62
7
  6
CONTINUOUS
 10
-366.7936521089
 20
210.6765632906
 40
50.0
100
AcDbArc
 50
270.0
 51
360.0
  0
ARC
  5
368
100
AcDbEntity
  8
ASSY_MEM
100
AcDbCircle
 62
7
  6
CONTINUOUS
 10
-579.2936521089
 20
210.6765632906
 40
50.0
100
AcDbArc
 50
180.0
 51
270.0
  0
ARC
  5
369
100
AcDbEntity
  8
ASSY_MEM
100
AcDbCircle
 62
7
  6
CONTINUOUS
 10
-54.2936521089
 20
210.6765632906
 40
50.0
100
AcDbArc
 50
270.0
 51
360.0
  0
ARC
  5
36A
100
AcDbEntity
  8
ASSY_MEM
100
AcDbCircle
 62
7
  6
CONTINUOUS
 10
-266.7936521089
 20
210.6765632906
 40
50.0
100
AcDbArc
 50
180.0
 51
270.0
  0
ARC
  5
36B
100
AcDbEntity
  8
ASSY_MEM
100
AcDbCircle
 62
7
  6
CONTINUOUS
 10
45.7063478911
 20
210.6765632906
 40
50.0
100
AcDbArc
 50
180.0
 51
270.0
  0
ARC
  5
36C
100
AcDbEntity
  8
ASSY_MEM
100
AcDbCircle
 62
7
  6
CONTINUOUS
 10
-326.7936521089
 20
378.4543410684
 40
10.0
100
AcDbArc
 50
0.0
 51
90.0
  0
ARC
  5
36D
100
AcDbEntity
  8
ASSY_MEM
100
AcDbCircle
 62
7
  6
CONTINUOUS
 10
-14.2936521089
 20
378.4543410684
 40
10.0
100
AcDbArc
 50
0.0
 51
90.0
  0
ARC
  5
36E
100
AcDbEntity
  8
ASSY_MEM
100
AcDbCircle
 62
7
  6
CONTINUOUS
 10
-306.7936521089
 20
378.4543410684
 40
10.0
100
AcDbArc
 50
90.0
 51
180.0
  0
ARC
  5
36F
100
AcDbEntity
  8
ASSY_MEM
100
AcDbCircle
 62
7
  6
CONTINUOUS
 10
5.7063478911
 20
378.4543410684
 40
10.0
100
AcDbArc
 50
90.0
 51
180.0
  0
CIRCLE
  5
370
100
AcDbEntity
  8
ASSY_MEM
100
AcDbCircle
 62
7
  6
CONTINUOUS
 10
-325.7936521089
 20
378.4543410684
 40
3.0
  0
CIRCLE
  5
371
100
AcDbEntity
  8
ASSY_MEM
100
AcDbCircle
 62
7
  6
CONTINUOUS
 10
-13.2936521089
 20
378.4543410684
 40
3.0
  0
CIRCLE
  5
372
100
AcDbEntity
  8
ASSY_MEM
100
AcDbCircle
 62
7
  6
CONTINUOUS
 10
-307.7936521089
 20
378.4543410684
 40
3.0
  0
CIRCLE
  5
373
100
AcDbEntity
  8
ASSY_MEM
100
AcDbCircle
 62
7
  6
CONTINUOUS
 10
4.7063478911
 20
378.4543410684
 40
3.0
  0
ARC
  5
374
100
AcDbEntity
  8
ASSY_MEM
100
AcDbCircle
 62
7
  6
CONTINUOUS
 10
-366.7936521089
 20
438.4765632906
 40
50.0
100
AcDbArc
 50
270.0
 51
360.0
  0
ARC
  5
375
100
AcDbEntity
  8
ASSY_MEM
100
AcDbCircle
 62
7
  6
CONTINUOUS
 10
-579.2936521089
 20
438.4765632906
 40
50.0
100
AcDbArc
 50
180.0
 51
270.0
  0
ARC
  5
376
100
AcDbEntity
  8
ASSY_MEM
100
AcDbCircle
 62
7
  6
CONTINUOUS
 10
-54.2936521089
 20
438.4765632906
 40
50.0
100
AcDbArc
 50
270.0
 51
360.0
  0
ARC
  5
377
100
AcDbEntity
  8
ASSY_MEM
100
AcDbCircle
 62
7
  6
CONTINUOUS
 10
-266.7936521089
 20
438.4765632906
 40
50.0
100
AcDbArc
 50
180.0
 51
270.0
  0
ARC
  5
378
100
AcDbEntity
  8
ASSY_MEM
100
AcDbCircle
 62
7
  6
CONTINUOUS
 10
45.7063478911
 20
438.4765632906
 40
50.0
100
AcDbArc
 50
180.0
 51
270.0
  0
ARC
  5
379
100
AcDbEntity
  8
ASSY_MEM
100
AcDbCircle
 62
7
  6
CONTINUOUS
 10
-326.7936521089
 20
606.2543410684
 40
10.0
100
AcDbArc
 50
0.0
 51
90.0
  0
ARC
  5
37A
100
AcDbEntity
  8
ASSY_MEM
100
AcDbCircle
 62
7
  6
CONTINUOUS
 10
-14.2936521089
 20
606.2543410684
 40
10.0
100
AcDbArc
 50
0.0
 51
90.0
  0
ARC
  5
37B
100
AcDbEntity
  8
ASSY_MEM
100
AcDbCircle
 62
7
  6
CONTINUOUS
 10
-306.7936521089
 20
606.2543410684
 40
10.0
100
AcDbArc
 50
90.0
 51
180.0
  0
ARC
  5
37C
100
AcDbEntity
  8
ASSY_MEM
100
AcDbCircle
 62
7
  6
CONTINUOUS
 10
5.7063478911
 20
606.2543410684
 40
10.0
100
AcDbArc
 50
90.0
 51
180.0
  0
CIRCLE
  5
37D
100
AcDbEntity
  8
ASSY_MEM
100
AcDbCircle
 62
7
  6
CONTINUOUS
 10
-325.7936521089
 20
606.2543410684
 40
3.0
  0
CIRCLE
  5
37E
100
AcDbEntity
  8
ASSY_MEM
100
AcDbCircle
 62
7
  6
CONTINUOUS
 10
-13.2936521089
 20
606.2543410684
 40
3.0
  0
CIRCLE
  5
37F
100
AcDbEntity
  8
ASSY_MEM
100
AcDbCircle
 62
7
  6
CONTINUOUS
 10
-307.7936521089
 20
606.2543410684
 40
3.0
  0
CIRCLE
  5
380
100
AcDbEntity
  8
ASSY_MEM
100
AcDbCircle
 62
7
  6
CONTINUOUS
 10
4.7063478911
 20
606.2543410684
 40
3.0
  0
ARC
  5
381
100
AcDbEntity
  8
ASSY_MEM
100
AcDbCircle
 62
7
  6
CONTINUOUS
 10
570.7063478911
 20
-244.9234367094
 40
50.0
100
AcDbArc
 50
270.0
 51
360.0
  0
ARC
  5
382
100
AcDbEntity
  8
ASSY_MEM
100
AcDbCircle
 62
7
  6
CONTINUOUS
 10
358.2063478911
 20
-244.9234367094
 40
50.0
100
AcDbArc
 50
180.0
 51
270.0
  0
ARC
  5
383
100
AcDbEntity
  8
ASSY_MEM
100
AcDbCircle
 62
7
  6
CONTINUOUS
 10
258.2063478911
 20
-244.9234367094
 40
50.0
100
AcDbArc
 50
270.0
 51
360.0
  0
ARC
  5
384
100
AcDbEntity
  8
ASSY_MEM
100
AcDbCircle
 62
7
  6
CONTINUOUS
 10
883.2063478911
 20
-244.9234367094
 40
50.0
100
AcDbArc
 50
270.0
 51
360.0
  0
ARC
  5
385
100
AcDbEntity
  8
ASSY_MEM
100
AcDbCircle
 62
7
  6
CONTINUOUS
 10
670.7063478911
 20
-244.9234367094
 40
50.0
100
AcDbArc
 50
180.0
 51
270.0
  0
ARC
  5
386
100
AcDbEntity
  8
ASSY_MEM
100
AcDbCircle
 62
7
  6
CONTINUOUS
 10
610.7063478911
 20
-77.1456589316
 40
10.0
100
AcDbArc
 50
0.0
 51
90.0
  0
ARC
  5
387
100
AcDbEntity
  8
ASSY_MEM
100
AcDbCircle
 62
7
  6
CONTINUOUS
 10
318.2063478911
 20
-77.1456589316
 40
10.0
100
AcDbArc
 50
90.0
 51
180.0
  0
ARC
  5
388
100
AcDbEntity
  8
ASSY_MEM
100
AcDbCircle
 62
7
  6
CONTINUOUS
 10
298.2063478911
 20
-77.1456589316
 40
10.0
100
AcDbArc
 50
0.0
 51
90.0
  0
ARC
  5
389
100
AcDbEntity
  8
ASSY_MEM
100
AcDbCircle
 62
7
  6
CONTINUOUS
 10
630.7063478911
 20
-77.1456589316
 40
10.0
100
AcDbArc
 50
90.0
 51
180.0
  0
CIRCLE
  5
38A
100
AcDbEntity
  8
ASSY_MEM
100
AcDbCircle
 62
7
  6
CONTINUOUS
 10
611.7063478911
 20
-77.1456589316
 40
3.0
  0
CIRCLE
  5
38B
100
AcDbEntity
  8
ASSY_MEM
100
AcDbCircle
 62
7
  6
CONTINUOUS
 10
317.2063478911
 20
-77.1456589316
 40
3.0
  0
CIRCLE
  5
38C
100
AcDbEntity
  8
ASSY_MEM
100
AcDbCircle
 62
7
  6
CONTINUOUS
 10
299.2063478911
 20
-77.1456589316
 40
3.0
  0
CIRCLE
  5
38D
100
AcDbEntity
  8
ASSY_MEM
100
AcDbCircle
 62
7
  6
CONTINUOUS
 10
629.7063478911
 20
-77.1456589316
 40
3.0
  0
ARC
  5
38E
100
AcDbEntity
  8
ASSY_MEM
100
AcDbCircle
 62
7
  6
CONTINUOUS
 10
258.2063478911
 20
-17.1234367094
 40
50.0
100
AcDbArc
 50
270.0
 51
360.0
  0
ARC
  5
38F
100
AcDbEntity
  8
ASSY_MEM
100
AcDbCircle
 62
7
  6
CONTINUOUS
 10
570.7063478911
 20
-17.1234367094
 40
50.0
100
AcDbArc
 50
270.0
 51
360.0
  0
ARC
  5
390
100
AcDbEntity
  8
ASSY_MEM
100
AcDbCircle
 62
7
  6
CONTINUOUS
 10
358.2063478911
 20
-17.1234367094
 40
50.0
100
AcDbArc
 50
180.0
 51
270.0
  0
ARC
  5
391
100
AcDbEntity
  8
ASSY_MEM
100
AcDbCircle
 62
7
  6
CONTINUOUS
 10
883.2063478911
 20
-17.1234367094
 40
50.0
100
AcDbArc
 50
270.0
 51
360.0
  0
ARC
  5
392
100
AcDbEntity
  8
ASSY_MEM
100
AcDbCircle
 62
7
  6
CONTINUOUS
 10
670.7063478911
 20
-17.1234367094
 40
50.0
100
AcDbArc
 50
180.0
 51
270.0
  0
ARC
  5
393
100
AcDbEntity
  8
ASSY_MEM
100
AcDbCircle
 62
7
  6
CONTINUOUS
 10
298.2063478911
 20
150.6543410684
 40
10.0
100
AcDbArc
 50
0.0
 51
90.0
  0
ARC
  5
394
100
AcDbEntity
  8
ASSY_MEM
100
AcDbCircle
 62
7
  6
CONTINUOUS
 10
610.7063478911
 20
150.6543410684
 40
10.0
100
AcDbArc
 50
0.0
 51
90.0
  0
ARC
  5
395
100
AcDbEntity
  8
ASSY_MEM
100
AcDbCircle
 62
7
  6
CONTINUOUS
 10
318.2063478911
 20
150.6543410684
 40
10.0
100
AcDbArc
 50
90.0
 51
180.0
  0
ARC
  5
396
100
AcDbEntity
  8
ASSY_MEM
100
AcDbCircle
 62
7
  6
CONTINUOUS
 10
630.7063478911
 20
150.6543410684
 40
10.0
100
AcDbArc
 50
90.0
 51
180.0
  0
CIRCLE
  5
397
100
AcDbEntity
  8
ASSY_MEM
100
AcDbCircle
 62
7
  6
CONTINUOUS
 10
299.2063478911
 20
150.6543410684
 40
3.0
  0
CIRCLE
  5
398
100
AcDbEntity
  8
ASSY_MEM
100
AcDbCircle
 62
7
  6
CONTINUOUS
 10
611.7063478911
 20
150.6543410684
 40
3.0
  0
CIRCLE
  5
399
100
AcDbEntity
  8
ASSY_MEM
100
AcDbCircle
 62
7
  6
CONTINUOUS
 10
317.2063478911
 20
150.6543410684
 40
3.0
  0
CIRCLE
  5
39A
100
AcDbEntity
  8
ASSY_MEM
100
AcDbCircle
 62
7
  6
CONTINUOUS
 10
629.7063478911
 20
150.6543410684
 40
3.0
  0
ARC
  5
39B
100
AcDbEntity
  8
ASSY_MEM
100
AcDbCircle
 62
7
  6
CONTINUOUS
 10
1508.2063478911
 20
-244.9234367094
 40
50.0
100
AcDbArc
 50
270.0
 51
360.0
  0
ARC
  5
39C
100
AcDbEntity
  8
ASSY_MEM
100
AcDbCircle
 62
7
  6
CONTINUOUS
 10
1295.7063478911
 20
-244.9234367094
 40
50.0
100
AcDbArc
 50
180.0
 51
270.0
  0
ARC
  5
39D
100
AcDbEntity
  8
ASSY_MEM
100
AcDbCircle
 62
7
  6
CONTINUOUS
 10
1195.7063478911
 20
-244.9234367094
 40
50.0
100
AcDbArc
 50
270.0
 51
360.0
  0
ARC
  5
39E
100
AcDbEntity
  8
ASSY_MEM
100
AcDbCircle
 62
7
  6
CONTINUOUS
 10
983.2063478911
 20
-244.9234367094
 40
50.0
100
AcDbArc
 50
180.0
 51
270.0
  0
ARC
  5
39F
100
AcDbEntity
  8
ASSY_MEM
100
AcDbCircle
 62
7
  6
CONTINUOUS
 10
923.2063478911
 20
-77.1456589316
 40
10.0
100
AcDbArc
 50
0.0
 51
90.0
  0
ARC
  5
3A0
100
AcDbEntity
  8
ASSY_MEM
100
AcDbCircle
 62
7
  6
CONTINUOUS
 10
1548.2063478911
 20
-77.1456589316
 40
10.0
100
AcDbArc
 50
0.0
 51
90.0
  0
ARC
  5
3A1
100
AcDbEntity
  8
ASSY_MEM
100
AcDbCircle
 62
7
  6
CONTINUOUS
 10
1255.7063478911
 20
-77.1456589316
 40
10.0
100
AcDbArc
 50
90.0
 51
180.0
  0
ARC
  5
3A2
100
AcDbEntity
  8
ASSY_MEM
100
AcDbCircle
 62
7
  6
CONTINUOUS
 10
1235.7063478911
 20
-77.1456589316
 40
10.0
100
AcDbArc
 50
0.0
 51
90.0
  0
ARC
  5
3A3
100
AcDbEntity
  8
ASSY_MEM
100
AcDbCircle
 62
7
  6
CONTINUOUS
 10
943.2063478911
 20
-77.1456589316
 40
10.0
100
AcDbArc
 50
90.0
 51
180.0
  0
CIRCLE
  5
3A4
100
AcDbEntity
  8
ASSY_MEM
100
AcDbCircle
 62
7
  6
CONTINUOUS
 10
924.2063478911
 20
-77.1456589316
 40
3.0
  0
CIRCLE
  5
3A5
100
AcDbEntity
  8
ASSY_MEM
100
AcDbCircle
 62
7
  6
CONTINUOUS
 10
1549.2063478911
 20
-77.1456589316
 40
3.0
  0
CIRCLE
  5
3A6
100
AcDbEntity
  8
ASSY_MEM
100
AcDbCircle
 62
7
  6
CONTINUOUS
 10
1254.7063478911
 20
-77.1456589316
 40
3.0
  0
CIRCLE
  5
3A7
100
AcDbEntity
  8
ASSY_MEM
100
AcDbCircle
 62
7
  6
CONTINUOUS
 10
1236.7063478911
 20
-77.1456589316
 40
3.0
  0
CIRCLE
  5
3A8
100
AcDbEntity
  8
ASSY_MEM
100
AcDbCircle
 62
7
  6
CONTINUOUS
 10
942.2063478911
 20
-77.1456589316
 40
3.0
  0
ARC
  5
3A9
100
AcDbEntity
  8
ASSY_MEM
100
AcDbCircle
 62
7
  6
CONTINUOUS
 10
1508.2063478911
 20
-17.1234367094
 40
50.0
100
AcDbArc
 50
270.0
 51
360.0
  0
ARC
  5
3AA
100
AcDbEntity
  8
ASSY_MEM
100
AcDbCircle
 62
7
  6
CONTINUOUS
 10
1295.7063478911
 20
-17.1234367094
 40
50.0
100
AcDbArc
 50
180.0
 51
270.0
  0
ARC
  5
3AB
100
AcDbEntity
  8
ASSY_MEM
100
AcDbCircle
 62
7
  6
CONTINUOUS
 10
1195.7063478911
 20
-17.1234367094
 40
50.0
100
AcDbArc
 50
270.0
 51
360.0
  0
ARC
  5
3AC
100
AcDbEntity
  8
ASSY_MEM
100
AcDbCircle
 62
7
  6
CONTINUOUS
 10
983.2063478911
 20
-17.1234367094
 40
50.0
100
AcDbArc
 50
180.0
 51
270.0
  0
ARC
  5
3AD
100
AcDbEntity
  8
ASSY_MEM
100
AcDbCircle
 62
7
  6
CONTINUOUS
 10
923.2063478911
 20
150.6543410684
 40
10.0
100
AcDbArc
 50
0.0
 51
90.0
  0
ARC
  5
3AE
100
AcDbEntity
  8
ASSY_MEM
100
AcDbCircle
 62
7
  6
CONTINUOUS
 10
1548.2063478911
 20
150.6543410684
 40
10.0
100
AcDbArc
 50
0.0
 51
90.0
  0
ARC
  5
3AF
100
AcDbEntity
  8
ASSY_MEM
100
AcDbCircle
 62
7
  6
CONTINUOUS
 10
1255.7063478911
 20
150.6543410684
 40
10.0
100
AcDbArc
 50
90.0
 51
180.0
  0
ARC
  5
3B0
100
AcDbEntity
  8
ASSY_MEM
100
AcDbCircle
 62
7
  6
CONTINUOUS
 10
1235.7063478911
 20
150.6543410684
 40
10.0
100
AcDbArc
 50
0.0
 51
90.0
  0
ARC
  5
3B1
100
AcDbEntity
  8
ASSY_MEM
100
AcDbCircle
 62
7
  6
CONTINUOUS
 10
943.2063478911
 20
150.6543410684
 40
10.0
100
AcDbArc
 50
90.0
 51
180.0
  0
CIRCLE
  5
3B2
100
AcDbEntity
  8
ASSY_MEM
100
AcDbCircle
 62
7
  6
CONTINUOUS
 10
924.2063478911
 20
150.6543410684
 40
3.0
  0
CIRCLE
  5
3B3
100
AcDbEntity
  8
ASSY_MEM
100
AcDbCircle
 62
7
  6
CONTINUOUS
 10
1549.2063478911
 20
150.6543410684
 40
3.0
  0
CIRCLE
  5
3B4
100
AcDbEntity
  8
ASSY_MEM
100
AcDbCircle
 62
7
  6
CONTINUOUS
 10
1254.7063478911
 20
150.6543410684
 40
3.0
  0
CIRCLE
  5
3B5
100
AcDbEntity
  8
ASSY_MEM
100
AcDbCircle
 62
7
  6
CONTINUOUS
 10
1236.7063478911
 20
150.6543410684
 40
3.0
  0
CIRCLE
  5
3B6
100
AcDbEntity
  8
ASSY_MEM
100
AcDbCircle
 62
7
  6
CONTINUOUS
 10
942.2063478911
 20
150.6543410684
 40
3.0
  0
ARC
  5
3B7
100
AcDbEntity
  8
ASSY_MEM
100
AcDbCircle
 62
7
  6
CONTINUOUS
 10
883.2063478911
 20
210.6765632906
 40
50.0
100
AcDbArc
 50
270.0
 51
360.0
  0
ARC
  5
3B8
100
AcDbEntity
  8
ASSY_MEM
100
AcDbCircle
 62
7
  6
CONTINUOUS
 10
670.7063478911
 20
210.6765632906
 40
50.0
100
AcDbArc
 50
180.0
 51
270.0
  0
ARC
  5
3B9
100
AcDbEntity
  8
ASSY_MEM
100
AcDbCircle
 62
7
  6
CONTINUOUS
 10
258.2063478911
 20
210.6765632906
 40
50.0
100
AcDbArc
 50
270.0
 51
360.0
  0
ARC
  5
3BA
100
AcDbEntity
  8
ASSY_MEM
100
AcDbCircle
 62
7
  6
CONTINUOUS
 10
570.7063478911
 20
210.6765632906
 40
50.0
100
AcDbArc
 50
270.0
 51
360.0
  0
ARC
  5
3BB
100
AcDbEntity
  8
ASSY_MEM
100
AcDbCircle
 62
7
  6
CONTINUOUS
 10
358.2063478911
 20
210.6765632906
 40
50.0
100
AcDbArc
 50
180.0
 51
270.0
  0
ARC
  5
3BC
100
AcDbEntity
  8
ASSY_MEM
100
AcDbCircle
 62
7
  6
CONTINUOUS
 10
630.7063478911
 20
378.4543410684
 40
10.0
100
AcDbArc
 50
90.0
 51
180.0
  0
ARC
  5
3BD
100
AcDbEntity
  8
ASSY_MEM
100
AcDbCircle
 62
7
  6
CONTINUOUS
 10
298.2063478911
 20
378.4543410684
 40
10.0
100
AcDbArc
 50
0.0
 51
90.0
  0
ARC
  5
3BE
100
AcDbEntity
  8
ASSY_MEM
100
AcDbCircle
 62
7
  6
CONTINUOUS
 10
610.7063478911
 20
378.4543410684
 40
10.0
100
AcDbArc
 50
0.0
 51
90.0
  0
ARC
  5
3BF
100
AcDbEntity
  8
ASSY_MEM
100
AcDbCircle
 62
7
  6
CONTINUOUS
 10
318.2063478911
 20
378.4543410684
 40
10.0
100
AcDbArc
 50
90.0
 51
180.0
  0
CIRCLE
  5
3C0
100
AcDbEntity
  8
ASSY_MEM
100
AcDbCircle
 62
7
  6
CONTINUOUS
 10
629.7063478911
 20
378.4543410684
 40
3.0
  0
CIRCLE
  5
3C1
100
AcDbEntity
  8
ASSY_MEM
100
AcDbCircle
 62
7
  6
CONTINUOUS
 10
299.2063478911
 20
378.4543410684
 40
3.0
  0
CIRCLE
  5
3C2
100
AcDbEntity
  8
ASSY_MEM
100
AcDbCircle
 62
7
  6
CONTINUOUS
 10
611.7063478911
 20
378.4543410684
 40
3.0
  0
CIRCLE
  5
3C3
100
AcDbEntity
  8
ASSY_MEM
100
AcDbCircle
 62
7
  6
CONTINUOUS
 10
317.2063478911
 20
378.4543410684
 40
3.0
  0
ARC
  5
3C4
100
AcDbEntity
  8
ASSY_MEM
100
AcDbCircle
 62
7
  6
CONTINUOUS
 10
258.2063478911
 20
438.4765632906
 40
50.0
100
AcDbArc
 50
270.0
 51
360.0
  0
ARC
  5
3C5
100
AcDbEntity
  8
ASSY_MEM
100
AcDbCircle
 62
7
  6
CONTINUOUS
 10
570.7063478911
 20
438.4765632906
 40
50.0
100
AcDbArc
 50
270.0
 51
360.0
  0
ARC
  5
3C6
100
AcDbEntity
  8
ASSY_MEM
100
AcDbCircle
 62
7
  6
CONTINUOUS
 10
358.2063478911
 20
438.4765632906
 40
50.0
100
AcDbArc
 50
180.0
 51
270.0
  0
ARC
  5
3C7
100
AcDbEntity
  8
ASSY_MEM
100
AcDbCircle
 62
7
  6
CONTINUOUS
 10
883.2063478911
 20
438.4765632906
 40
50.0
100
AcDbArc
 50
270.0
 51
360.0
  0
ARC
  5
3C8
100
AcDbEntity
  8
ASSY_MEM
100
AcDbCircle
 62
7
  6
CONTINUOUS
 10
670.7063478911
 20
438.4765632906
 40
50.0
100
AcDbArc
 50
180.0
 51
270.0
  0
ARC
  5
3C9
100
AcDbEntity
  8
ASSY_MEM
100
AcDbCircle
 62
7
  6
CONTINUOUS
 10
298.2063478911
 20
606.2543410684
 40
10.0
100
AcDbArc
 50
0.0
 51
90.0
  0
ARC
  5
3CA
100
AcDbEntity
  8
ASSY_MEM
100
AcDbCircle
 62
7
  6
CONTINUOUS
 10
610.7063478911
 20
606.2543410684
 40
10.0
100
AcDbArc
 50
0.0
 51
90.0
  0
ARC
  5
3CB
100
AcDbEntity
  8
ASSY_MEM
100
AcDbCircle
 62
7
  6
CONTINUOUS
 10
318.2063478911
 20
606.2543410684
 40
10.0
100
AcDbArc
 50
90.0
 51
180.0
  0
ARC
  5
3CC
100
AcDbEntity
  8
ASSY_MEM
100
AcDbCircle
 62
7
  6
CONTINUOUS
 10
630.7063478911
 20
606.2543410684
 40
10.0
100
AcDbArc
 50
90.0
 51
180.0
  0
CIRCLE
  5
3CD
100
AcDbEntity
  8
ASSY_MEM
100
AcDbCircle
 62
7
  6
CONTINUOUS
 10
299.2063478911
 20
606.2543410684
 40
3.0
  0
CIRCLE
  5
3CE
100
AcDbEntity
  8
ASSY_MEM
100
AcDbCircle
 62
7
  6
CONTINUOUS
 10
611.7063478911
 20
606.2543410684
 40
3.0
  0
CIRCLE
  5
3CF
100
AcDbEntity
  8
ASSY_MEM
100
AcDbCircle
 62
7
  6
CONTINUOUS
 10
317.2063478911
 20
606.2543410684
 40
3.0
  0
CIRCLE
  5
3D0
100
AcDbEntity
  8
ASSY_MEM
100
AcDbCircle
 62
7
  6
CONTINUOUS
 10
629.7063478911
 20
606.2543410684
 40
3.0
  0
ARC
  5
3D1
100
AcDbEntity
  8
ASSY_MEM
100
AcDbCircle
 62
7
  6
CONTINUOUS
 10
1508.2063478911
 20
210.6765632906
 40
50.0
100
AcDbArc
 50
270.0
 51
360.0
  0
ARC
  5
3D2
100
AcDbEntity
  8
ASSY_MEM
100
AcDbCircle
 62
7
  6
CONTINUOUS
 10
1295.7063478911
 20
210.6765632906
 40
50.0
100
AcDbArc
 50
180.0
 51
270.0
  0
ARC
  5
3D3
100
AcDbEntity
  8
ASSY_MEM
100
AcDbCircle
 62
7
  6
CONTINUOUS
 10
1195.7063478911
 20
210.6765632906
 40
50.0
100
AcDbArc
 50
270.0
 51
360.0
  0
ARC
  5
3D4
100
AcDbEntity
  8
ASSY_MEM
100
AcDbCircle
 62
7
  6
CONTINUOUS
 10
983.2063478911
 20
210.6765632906
 40
50.0
100
AcDbArc
 50
180.0
 51
270.0
  0
ARC
  5
3D5
100
AcDbEntity
  8
ASSY_MEM
100
AcDbCircle
 62
7
  6
CONTINUOUS
 10
923.2063478911
 20
378.4543410684
 40
10.0
100
AcDbArc
 50
0.0
 51
90.0
  0
ARC
  5
3D6
100
AcDbEntity
  8
ASSY_MEM
100
AcDbCircle
 62
7
  6
CONTINUOUS
 10
1548.2063478911
 20
378.4543410684
 40
10.0
100
AcDbArc
 50
0.0
 51
90.0
  0
ARC
  5
3D7
100
AcDbEntity
  8
ASSY_MEM
100
AcDbCircle
 62
7
  6
CONTINUOUS
 10
1255.7063478911
 20
378.4543410684
 40
10.0
100
AcDbArc
 50
90.0
 51
180.0
  0
ARC
  5
3D8
100
AcDbEntity
  8
ASSY_MEM
100
AcDbCircle
 62
7
  6
CONTINUOUS
 10
1235.7063478911
 20
378.4543410684
 40
10.0
100
AcDbArc
 50
0.0
 51
90.0
  0
ARC
  5
3D9
100
AcDbEntity
  8
ASSY_MEM
100
AcDbCircle
 62
7
  6
CONTINUOUS
 10
943.2063478911
 20
378.4543410684
 40
10.0
100
AcDbArc
 50
90.0
 51
180.0
  0
CIRCLE
  5
3DA
100
AcDbEntity
  8
ASSY_MEM
100
AcDbCircle
 62
7
  6
CONTINUOUS
 10
924.2063478911
 20
378.4543410684
 40
3.0
  0
CIRCLE
  5
3DB
100
AcDbEntity
  8
ASSY_MEM
100
AcDbCircle
 62
7
  6
CONTINUOUS
 10
1549.2063478911
 20
378.4543410684
 40
3.0
  0
CIRCLE
  5
3DC
100
AcDbEntity
  8
ASSY_MEM
100
AcDbCircle
 62
7
  6
CONTINUOUS
 10
1254.7063478911
 20
378.4543410684
 40
3.0
  0
CIRCLE
  5
3DD
100
AcDbEntity
  8
ASSY_MEM
100
AcDbCircle
 62
7
  6
CONTINUOUS
 10
1236.7063478911
 20
378.4543410684
 40
3.0
  0
CIRCLE
  5
3DE
100
AcDbEntity
  8
ASSY_MEM
100
AcDbCircle
 62
7
  6
CONTINUOUS
 10
942.2063478911
 20
378.4543410684
 40
3.0
  0
ARC
  5
3DF
100
AcDbEntity
  8
ASSY_MEM
100
AcDbCircle
 62
7
  6
CONTINUOUS
 10
1508.2063478911
 20
438.4765632906
 40
50.0
100
AcDbArc
 50
270.0
 51
360.0
  0
ARC
  5
3E0
100
AcDbEntity
  8
ASSY_MEM
100
AcDbCircle
 62
7
  6
CONTINUOUS
 10
1295.7063478911
 20
438.4765632906
 40
50.0
100
AcDbArc
 50
180.0
 51
270.0
  0
ARC
  5
3E1
100
AcDbEntity
  8
ASSY_MEM
100
AcDbCircle
 62
7
  6
CONTINUOUS
 10
1195.7063478911
 20
438.4765632906
 40
50.0
100
AcDbArc
 50
270.0
 51
360.0
  0
ARC
  5
3E2
100
AcDbEntity
  8
ASSY_MEM
100
AcDbCircle
 62
7
  6
CONTINUOUS
 10
983.2063478911
 20
438.4765632906
 40
50.0
100
AcDbArc
 50
180.0
 51
270.0
  0
ARC
  5
3E3
100
AcDbEntity
  8
ASSY_MEM
100
AcDbCircle
 62
7
  6
CONTINUOUS
 10
923.2063478911
 20
606.2543410684
 40
10.0
100
AcDbArc
 50
0.0
 51
90.0
  0
ARC
  5
3E4
100
AcDbEntity
  8
ASSY_MEM
100
AcDbCircle
 62
7
  6
CONTINUOUS
 10
1548.2063478911
 20
606.2543410684
 40
10.0
100
AcDbArc
 50
0.0
 51
90.0
  0
ARC
  5
3E5
100
AcDbEntity
  8
ASSY_MEM
100
AcDbCircle
 62
7
  6
CONTINUOUS
 10
1255.7063478911
 20
606.2543410684
 40
10.0
100
AcDbArc
 50
90.0
 51
180.0
  0
ARC
  5
3E6
100
AcDbEntity
  8
ASSY_MEM
100
AcDbCircle
 62
7
  6
CONTINUOUS
 10
1235.7063478911
 20
606.2543410684
 40
10.0
100
AcDbArc
 50
0.0
 51
90.0
  0
ARC
  5
3E7
100
AcDbEntity
  8
ASSY_MEM
100
AcDbCircle
 62
7
  6
CONTINUOUS
 10
943.2063478911
 20
606.2543410684
 40
10.0
100
AcDbArc
 50
90.0
 51
180.0
  0
CIRCLE
  5
3E8
100
AcDbEntity
  8
ASSY_MEM
100
AcDbCircle
 62
7
  6
CONTINUOUS
 10
924.2063478911
 20
606.2543410684
 40
3.0
  0
CIRCLE
  5
3E9
100
AcDbEntity
  8
ASSY_MEM
100
AcDbCircle
 62
7
  6
CONTINUOUS
 10
1549.2063478911
 20
606.2543410684
 40
3.0
  0
CIRCLE
  5
3EA
100
AcDbEntity
  8
ASSY_MEM
100
AcDbCircle
 62
7
  6
CONTINUOUS
 10
1254.7063478911
 20
606.2543410684
 40
3.0
  0
CIRCLE
  5
3EB
100
AcDbEntity
  8
ASSY_MEM
100
AcDbCircle
 62
7
  6
CONTINUOUS
 10
1236.7063478911
 20
606.2543410684
 40
3.0
  0
CIRCLE
  5
3EC
100
AcDbEntity
  8
ASSY_MEM
100
AcDbCircle
 62
7
  6
CONTINUOUS
 10
942.2063478911
 20
606.2543410684
 40
3.0
  0
ENDSEC
  0
SECTION
  2
OBJECTS
  0
DICTIONARY
  5
C
100
AcDbDictionary
280
0
281
1
  3
ACAD_GROUP
350
D
  3
ACAD_MLINESTYLE
350
17
  3
ACAD_LAYOUT
350
1A
  3
ACAD_PLOTSETTINGS
350
19
  3
ACAD_PLOTSTYLENAME
350
E
  0
DICTIONARY
  5
D
102
{ACAD_REACTORS
330
C
102
}
100
AcDbDictionary
280
0
281
1
  0
ACDBDICTIONARYWDFLT
  5
E
102
{ACAD_REACTORS
330
C
102
}
100
AcDbDictionary
281
1
  3
Normal
350
F
100
AcDbDictionaryWithDefault
340
F
  0
DICTIONARY
  5
17
102
{ACAD_REACTORS
330
C
102
}
100
AcDbDictionary
280
0
281
1
  3
Standard
350
18
  0
DICTIONARY
  5
19
102
{ACAD_REACTORS
330
C
102
}
100
AcDbDictionary
281
1
  0
DICTIONARY
  5
1A
102
{ACAD_REACTORS
330
C
102
}
100
AcDbDictionary
281
1
  3
Model
350
3ED
  3
Layout1
350
3EE
  0
ACDBPLACEHOLDER
  5
F
102
{ACAD_REACTORS
330
E
102
}
  0
MLINESTYLE
  5
18
102
{ACAD_REACTORS
330
17
102
}
100
AcDbMlineStyle
  2
STANDARD
 70
0
  3

 62
256
 51
90.0
 52
90.0
 71
2
 49
0.5
 62
256
  6
BYLAYER
 49
-0.5
 62
256
  6
BYLAYER
  0
LAYOUT
  5
3ED
102
{ACAD_REACTORS
330
1A
102
}
100
AcDbPlotSettings
  1

  2
none_device
  4
ANSI_C_(22.00_x_17.00_Inches)
  6

 40
0.0
 41
0.0
 42
0.0
 43
0.0
 44
558.8
 45
431.8
 46
0.0
 47
0.0
 48
0.0
 49
0.0
140
0.0
141
0.0
142
1.0
143
1.0
 70
1024
 72
1
 73
0
 74
0
  7

 75
0
147
1.0
148
0.0
149
0.0
100
AcDbLayout
  1
Model
 70
0
 71
0
 10
0.0
 20
0.0
 11
558.8
 21
431.8
 12
0.0
 22
0.0
 32
0.0
 14
0.0
 24
0.0
 34
0.0
 15
0.0
 25
0.0
 35
0.0
146
0.0
 13
0.0
 23
0.0
 33
0.0
 16
1.0
 26
0.0
 36
0.0
 17
0.0
 27
1.0
 37
0.0
 76
0
330
212
345
0
346
0
  0
LAYOUT
  5
3EE
102
{ACAD_REACTORS
330
1A
102
}
100
AcDbPlotSettings
  1

  2
none_device
  4
ANSI_C_(22.00_x_17.00_Inches)
  6

 40
0.0
 41
0.0
 42
0.0
 43
0.0
 44
558.8
 45
431.8
 46
0.0
 47
0.0
 48
0.0
 49
0.0
140
0.0
141
0.0
142
1.0
143
1.0
 70
0
 72
1
 73
0
 74
0
  7

 75
0
147
1.0
148
0.0
149
0.0
100
AcDbLayout
  1
Layout1
 70
0
 71
1
 10
0.0
 20
0.0
 11
558.8
 21
431.8
 12
0.0
 22
0.0
 32
0.0
 14
0.0
 24
0.0
 34
0.0
 15
0.0
 25
0.0
 35
0.0
146
0.0
 13
0.0
 23
0.0
 33
0.0
 16
1.0
 26
0.0
 36
0.0
 17
0.0
 27
1.0
 37
0.0
 76
0
330
213
345
0
346
0
  0
ENDSEC
  0
EOF
